______________________________________
            |            Artist : CKY              |
            |    Song: 96 QUITE BITTER BEINGS      |
            |           Album: VOLUME 1            | 
            |          Tabbed by: aafs41           |
            | email: [email protected]   |
            |______________________________________|


|||-------------|----3-4-3-------|--------------|-3------3-----|3x
|4|°------------|--4-------4-3---|--------------|---6-4-----4-°|
|4|°6-6-6--6----|6-------------4-|-2-2-2--2-.-.-|-------------°|
|||-------------|----------------|--------------|--------------|
    ___          _______________   ___


|-------------|-------------|-------------|--------------|
|°---*-----*--|----*--*-----|----*-----*--|----*--*--*--°|
|°---*-----*--|----*--*-----|-3--*--3--*--|-3--*--*--*--°|
|-1-----1-----|-1--------1--|-------------|--------------|


|-------------|-------------|-------------|-------------|3x
|°---*-----*--|----*--*-----|----*-----*--|---*--*--*--°|
|°---*-----*--|----*--*-----|-3--*--3--*--|3--*--*--*--°|
|-1-----1-----|-1--------1--|-------------|-------------|


|-------------|----3-4-3-------|--------------|-3------3-----|3x
|°------------|--4-------4-3---|--------------|---6-4-----4-°|
|°6-6-6--6----|6-------------4-|-2-2-2--2-.-.-|-------------°|
|-------------|----------------|--------------|--------------|
  ___          _______________   ___

                                           ___           ___
                                          /1            /2
|-------------|-------------|-------------|-------------|------------|
|°---*-----*--|----*--*-----|----*-----*--|---*--*--*--°|--------*---|
|°---*-----*--|----*--*-----|-3--*--3--*--|3--*--*--*--°|-3--3-/6-3--|
|-1-----1-----|-1--------1--|-------------|-------------|------------|


|-------------|-------------|------------|----------0---|3x
|°-1..........|.....--3--1--|------------|-------3-----°|
|°------------|-------------|-3..........|.....--------°|
|-------------|-------------|------------|--------------|


|||------------------------|4x
|6|°----------------------°|
|4|°----------------------°|
|||-888-888-8--666-666-666-|
    ___ ___    ___ ___ ___


||------------------------|-----------------------------------|
||---------------------*--|°---------------------------------°|
||---------------------*--|°---------------------------------°|
||-888-888-8--666-666-6---|-8-8-8-8-8-8-8--6-6-6-6-6-6-6-6-6--|
   ___ ___    ___ ___ __    _____ _____    _____ _____ _____ 
  

|||--------------|------------|------------|------------|------------|
|4|°----*-----*--|---*--4-----|---*-----*--|---*--*-----|---*-----*--|
|4|°-4--*--4--*--|4--*-----4--|---*-----*--|---*--*-----|---*-----*--|
|||--------------|------------|1-----1-----|1--------8--|6-----6-----|


|-------------|------------|--------|
|----*--4-----|---*-----*--|---***-°|
|----*-----4--|---*-----*--|---***-°|
|-6-----------|1-----1-----|1-------|


|||------------------------|4x
|6|°----------------------°|
|4|°----------------------°|
|||-888-888-8--666-666-666-|
    ___ ___    ___ ___ ___


||------------------------|-----------------------------------|
||---------------------*--|°---------------------------------°|
||---------------------*--|°---------------------------------°|
||-888-888-8--666-666-6---|-8-8-8-8-8-8-8--6-6-6-6-6-6-6-6-6--|
   ___ ___    ___ ___ __    _____ _____    _____ _____ _____ 

                                                         ____
                                                        /1
|||--------------|------------|------------|------------|------------|
|4|°----*-----*--|---*--4-----|---*-----*--|---*--*-----|---*-----*--|
|4|°-4--*--4--*--|4--*-----4--|---*-----*--|---*--*-----|---*-----*--|
|||--------------|------------|1-----1-----|1--------8--|6-----6-----|

                                     ____
                                    /2
|-------------|------------|--------|------------|-------------|-----------|
|----*--4-----|---*-----*--|---***-°|---*-----*--|----*--4-----|---*-----*-|
|----*-----4--|---*-----*--|---***-°|---*-----*--|----*-----4--|---*-----*-|
|-6-----------|1-----1-----|1-------|6-----6-----|-6-----------|1-----1----|


|--------|-------------|----3-4-3-------|--------------|-3------3-----|6x
|---***--|°------------|--4-------4-3---|--------------|---6-4-----4-°|
|---***--|°6-6-6--6----|6-------------4-|-2-2-2--2-.-.-|-------------°|
|1-------|-------------|----------------|--------------|--------------|
           ___          _______________   ___


|-------------|----3-4-3-------|--------------|-3------3-----|
|-------------|--4-------4-3---|--------------|---6-4-----4--|
|-6-6-6--6----|6-------------4-|-2-2-2--2-.-.-|--------------|
|-------------|----------------|--------------|--------------|
  ___          _______________   ___


...: sustain the note

___: play fast.. (you'll figure it out when you'll listen to the song) 

*
*: silence (1)

remember.. 3x means to play 4 times ...

ok.. i know there's already 5 versions of the song.. but this one works too!


Текст, аккорды и табулатура для песни "96 Quite Bitter Beings", исполняет "Cky".
Используемые в песне аккорды можно найти в разделе Как брать аккорды. Аккорды для шестиструнной гитары. Другие песни можно найти на нашем сайте, воспользовавшись алфавитным указателем вверху страницы.


Слушать онлайн 96 Quite Bitter Beings


CKY96 Quite Bitter Beings на Яндекс.Музыке


 
Ошибка в тексте? Выделите ошибку и нажмите Ctrl+Enter