By Deron Miller 
From Volume 1 
Tab by John Houx with help Deron Miller 

Tuning: 1/2 Step Down (Low to High: Eb Ab Db Gb Bb Eb) 

Main Riff 4x 
----------------------------------------------------------------- 
----------------------------------------------------------------- 
-----4---------------4-5-4---------------7---5---4-2-0---4---0--- 
---5---------------5-------5-4-------5--------------------------- 
-7---------------7-------------5-3------------------------------- 
---------0------------------------------------------------------- 

Verse 6x (2x then 4x with lyrics) 

------------------------------- 
------------------------------- 
------------------------------- 
------------------------------- 
-----------------4---4---4---4- 
-0---0---0-----0--------------- 

With my perceptions in a mix, down 20 miles through the sticks 
To the clouded town of Hellview, population 96 
Excessive vacancy, well maybe in the shadow of an eye 
All the strangers pass right through it where the rules just don't apply 

Main Riff 4x 

Verse Riff 6x with lyrics 

At the fork turn left - a store, but on the right, stay free from sight 
'Cause 96 quite bitter beings like to stack the bodies high 
The only way to ever leave is overflooded by the storm  
And entanglement in Hellview brings you fear in 50 forms 
They've deleted all the tourists at the bottom of the lake 
And not one supports the cause to leave the blood stay in the veins 

Bridge 1 8x (6x then quick pause then 2x) 
In 3/4 time 

------------------------- 
------------------------- 
-4-4-4-4-4-4------------- 
-5-5-5-5-5-5-7-7-7-7-7-7- 
-7-7-7-7-7-7-5-5-5-5-5-5- 
-------------3-3-3-3-3-3- 

Bridge 2 2x with lyrics 

------------------------------------------------------------------ 
------------------------------------------------------------------ 
------------------------------------------------------------------ 
-------------5-0-2---------------------------5-0-2---------------- 
-5---5---5-----------------------3---3---3------------------------ 
---------------------0---0-----0----------------------0---0-----0- 

Here three miles back is where we are 
All we ever wanted was an answer 
The civilized are close yet way too far 
All we ever wanted was an answer 

Bridge 1 8x 

Bridge 2 2x with lyrics 

Footprints giving clue to where we are 
All we ever wanted was answer 
The civilized are close yet way too far 
All we ever wanted 

Main Riff 8x
 

© 2001 CKY and John Houx


Текст, аккорды и табулатура для песни "96 Quite Bitter Beings", исполняет "Cky".
Используемые в песне аккорды можно найти в разделе Как брать аккорды. Аккорды для шестиструнной гитары. Другие песни можно найти на нашем сайте, воспользовавшись алфавитным указателем вверху страницы.


Слушать онлайн 96 Quite Bitter Beings


CKY96 Quite Bitter Beings на Яндекс.Музыке


 
Ошибка в тексте? Выделите ошибку и нажмите Ctrl+Enter