This is not a full version, but it give good idea of the main chords...
If You want to build it you'r way, go ahead and sign it...

STEEL RAIN, Chris Cornell (Euphoria Morning)

INTRO and Main verse

 F        Am       B7       B
|--1---0-|0---1-3-|2---20--|--------| 
|--1-----|1----2--|0-----4-|4-4-4-4-|
|--2--2--|2--2----|2--2----|--------|
|3-3-3---|2-2-----|1-1-124-|-4-4-4-4|
|--------|0-------|2-------|--------|
|--------|--------|--------|--------|

some variation on chords B...

So we started another day togheter
You and I and a million miles between us
....ETC

...Steel rain

 Am       Am/E     Ebdim    D        Dm       Bb       E        Fmaj7    E
|----5---|----5---|----5---|---32---|----1---|----1---|----0---|----0---|0-------|
|---5-5--|---5-5--|--4--4--|--3---3-|--3--3--|--3--3--|---0-0--|---0-0--|0-------|
|--5---5-|--5---5-|-5-5--5-|-2-----2|-2-2--2-|-3-3--3-|--1---1-|--2---2-|1-------|
|-7-----7|--------|--------|0-------|0------0|--------|-2------|-3-----3|2-------|
|0-------|-7-----7|6------6|--------|--------|1------1|-------2|3-------|2-------|
|--------|0-------|--------|--------|--------|--------|0-------|--------|0-------|

Good Luck !

From Dan,Chicout.Qc.



Текст, аккорды и табулатура для песни "Steel Rain", исполняет "Chris Cornell".
Используемые в песне аккорды можно найти в разделе Как брать аккорды. Аккорды для шестиструнной гитары. Другие песни можно найти на нашем сайте, воспользовавшись алфавитным указателем вверху страницы.


Слушать онлайн Steel Rain


Chris CornellSteel Rain на Яндекс.Музыке


 
Ошибка в тексте? Выделите ошибку и нажмите Ctrl+Enter