Can't Change Me-Chris Cornell 
   3/4 Timing 
   Tuning standard 
   Capo 3rd Fret 
   Tabbed by G[email protected] 

   Intro (2x) 

   -|-----|-----|-----|-----|-----|- 
   -|-----|-----|-----|-----|-----|- 
   -|-----|-----|-----|-----|-----|- 
   -|2-4-5|7-5-4|5~~~~|9-7-5|4~~~~|- 
   -|-----|-----|-----|-----|-----|- 
   -|-----|-----|-----|-----|-----|- 

   Verse (2x) 

   -|0----|0----|0----|0----|0----|0----|0----|-----|- 
   -|0----|0----|0----|0----|0----|0----|2----|-----|- 
   -|0----|0----|0----|0----|0----|0----|2----|-----|- 
   -|2----|1----|0----|2----|2----|2----|2----|-----|- 
   -|2----|2----|2----|4----|2----|4----|0----|-----|- 
   -|0----|0----|0----|0----|0----|0----|-----|-----|- 

   She could do anything at all 
   Have anything she pleases. 
   Power to change what she thinks is wrong. 
   What could she want with me, yeah? 

   Pre-chorus 

   -|3----|-----|2----|-----|3----|3----|3----|-----| 
   -|5----|-----|4----|-----|3----|3----|5----|-----| 
   -|5----|-----|4----|-----|4----|5----|5----|-----| 
   -|5----|-----|4----|-----|5----|3----|5----|-----| 
   -|3----|-----|2----|-----|5----|5----|3----|-----| 
   -|3----|-----|2----|-----|3----|3----|3----|-----| 

   Wait just one minute here I can see she's tryin' 
   to read me 

   -|3----|-----|- 
   -|4----|-----|- 
   -|5----|-----|- 
   -|5----|-----|- 
   -|3----|-----|- 
   -|3----|-----|- 

   Suddenly I know.... 


   Chorus (3x) 

   -|-----|-----|-----|-----|- 
   -|-----|-----|-----|-----|- 
   -|-----|-----|5-5-5|4-4-4|- 
   -|5-5-5|7-7-7|5-5-5|4-4-4|- 
   -|5-5-5|7-7-7|3-3-3|2-2-2|- 
   -|3-3-3|5-5-5|-----|-----|- 

   She's going to change the world.(3x) 

   -|-----|-----|-----|-----|-----|-----|-----|-----| 
   -|-----|-----|-----|-----|-----|-----|-----|-----| 
   -|2----|4----|5----|-----|2----|-----|4----|-----| 
   -|2----|4----|5----|-----|2----|-----|4----|-----| 
   -|0----|2----|3----|-----|0----|-----|2----|-----| 
   -|-----|-----|-----|-----|-----|-----|-----|-----| 

   But she can't change me. 
   No she can't change me. 

   Mini bridge (once) 

   -|-----|-----|-----|-----|-----|- 
   -|-----|-----|-----|-----|-----|- 
   -|-----|-----|-----|-----|-----|- 
   -|2-4-5|7-5-4|5~~~~|9-7-5|4~~~~|- 
   -|-----|-----|-----|-----|-----|- 
   -|-----|-----|-----|-----|-----|- 

   Verse #2 

   -|0----|0----|0----|0----|0----|0----|0----|-----|- 
   -|0----|0----|0----|0----|0----|0----|2----|-----|- 
   -|0----|0----|0----|0----|0----|0----|2----|-----|- 
   -|2----|1----|0----|2----|2----|2----|2----|-----|- 
   -|2----|2----|2----|4----|2----|4----|0----|-----|- 
   -|0----|0----|0----|0----|0----|0----|-----|-----|- 

   She has the daylight at her command. 
   She gives the night it's dreams. Yeah. 
   She could uncover your darkest fear. 
   Make you forget you feel them. 

   Pre-chorus 
   -|3----|-----|2----|-----|3----|3----|3----|-----| 
   -|5----|-----|4----|-----|3----|3----|5----|-----| 
   -|5----|-----|4----|-----|4----|5----|5----|-----| 
   -|5----|-----|4----|-----|5----|3----|5----|-----| 
   -|3----|-----|2----|-----|5----|5----|3----|-----| 
   -|3----|-----|2----|-----|3----|3----|3----|-----| 
   Wait just minute more.I can see that she's trying 
   to free me. 

   -|3----|-----|- 
   -|4----|-----|- 
   -|5----|-----|- 
   -|5----|-----|- 
   -|3----|-----|- 
   -|3----|-----|- 

   Suddenly I know.... 

   Chorus 
   -|-----|-----|-----|-----|- 
   -|-----|-----|-----|-----|- 
   -|-----|-----|5-5-5|4-4-4|- 
   -|5-5-5|7-7-7|5-5-5|4-4-4|- 
   -|5-5-5|7-7-7|3-3-3|2-2-2|- 
   -|3-3-3|5-5-5|-----|-----|- 

   She's going to change the world.(3x) 

   -|-----|-----|-----|-----|-----|-----|-----|-----|-----|-----| 
   -|-----|-----|-----|-----|-----|-----|-----|-----|-----|-----| 
   -|2----|4----|5----|-----|2----|-----|4----|-----|5----|-----| 
   -|2----|4----|5----|-----|2----|-----|4----|-----|5----|-----| 
   -|0----|2----|3----|-----|0----|-----|2----|-----|3----|-----| 
   -|-----|-----|-----|-----|-----|-----|-----|-----|-----|-----| 

   But she can't change me. 
   No she can't change me. 

   -|3----|-----|0----|-----|3----|-----|3----|-----| 
   -|5----|-----|0----|-----|3----|-----|5----|-----| 
   -|5----|-----|0----|-----|4----|-----|5----|-----| 
   -|5----|-----|2----|-----|5----|-----|5----|-----| 
   -|3----|-----|2----|-----|5----|-----|3----|-----| 
   -|3----|-----|0----|-----|3----|-----|3----|-----| 

   -|2----|-----|0----|-----|2----|-----| 
   -|4----|-----|0----|-----|4----|-----| 
   -|4----|-----|0----|-----|4----|-----| 
   -|4----|-----|2----|-----|4----|-----| 
   -|2----|-----|2----|-----|2----|-----| 
   -|2----|-----|0----|-----|2----|-----| 

   And suddenly I can see everything that's wrong 
   with me.Yeah. 
   But what can I do when the only thing I really have 
   At all. 


   Bridge 2 

   -|-----|-----|-----|-----|-----| 
   -|-----|-----|-----|-----|-----| 
   -|-----|-----|-----|-----|-----| 
   -|2-4-5|7-5-4|5~~~~|9-7-5|4~~~~| 
   -|-----|-----|-----|-----|-----| 
   -|-----|-----|-----|-----|-----| 

   -|-----|-----|-----|-----|-----|- 
   -|-----|-----|-----|-----|-----|- 
   -|-----|-----|-----|-----|-----|- 
   -|-----|-----|-----|-----|-----|- 
   -|-----|-----|-----|-----|-----|- 
   -|0-2-3|5-3-2|3-2-0|7-5-3|2-3-5|- 

   Pre-chorus 

   -|3----|-----|2----|-----|3----|3----|3----|-----| 
   -|5----|-----|4----|-----|3----|3----|5----|-----| 
   -|5----|-----|4----|-----|4----|5----|5----|-----| 
   -|5----|-----|4----|-----|5----|3----|5----|-----| 
   -|3----|-----|2----|-----|5----|5----|3----|-----| 
   -|3----|-----|2----|-----|3----|3----|3----|-----| 

   Wait just one minute here I can see she's tryin' 
   to read me 

   -|3----|-----|- 
   -|4----|-----|- 
   -|5----|-----|- 
   -|5----|-----|- 
   -|3----|-----|- 
   -|3----|-----|- 

   Suddenly I know.... 

   -|-----|-----|-----|-----|- 
   -|-----|-----|-----|-----|- 
   -|-----|-----|5-5-5|4-4-4|- 
   -|5-5-5|7-7-7|5-5-5|4-4-4|- 
   -|5-5-5|7-7-7|3-3-3|2-2-2|- 
   -|3-3-3|5-5-5|-----|-----|- 

   She's going to change the world.(3x) 





   -|-----|-----|-----|-----|-----|-----|-----|-----| 
   -|-----|-----|-----|-----|-----|-----|-----|-----| 
   -|2----|4----|5----|-----|2----|-----|4----|-----| 
   -|2----|4----|5----|-----|2----|-----|4----|-----| 
   -|0----|2----|3----|-----|0----|-----|2----|-----| 
   -|-----|-----|-----|-----|-----|-----|-----|-----| 

   But she can't change me. 
   No she can't change 

   Rake----| 
   -|0-----|- 
   -|-0----|- 
   -|--0---|- 
   -|---2--|- 
   -|----2-|- 
   -|-----0|- 

   All the notes are in perspective of the capo. 
   Listen to the song and you'll instntly see that anything that sounds 
   weird just does in the song too. 
   E-mail me with comments and requests. I'l try a song a week. 
   Bye bye. 


Текст, аккорды и табулатура для песни "Cant Change Me", исполняет "Chris Cornell".
Используемые в песне аккорды можно найти в разделе Как брать аккорды. Аккорды для шестиструнной гитары. Другие песни можно найти на нашем сайте, воспользовавшись алфавитным указателем вверху страницы.


 
Ошибка в тексте? Выделите ошибку и нажмите Ctrl+Enter