I Wanna Hump You

Band: Chixdiggit
Album: Self-titled debut
Tuning: Standard
Pedals: Distortion
Tabbed by: Dana Corrigan

Intro and Chorus:

e|----------------------------|
B|----------------------------|
G|----------------------------|
D|-4---6--6--6--6--6--6--6--6-|
A|-4---6--6--6--6--6--6--6--6-|
E|-2---4--4--4--4--4--4--4--4-|

Verse:

e|---------------------------------------------------------
B|---------------------------------------------------------
G|-6-6-6-6-6-6-6-6-6-6-6-6---------------------------------
D|-6-6-6-6-6-6-6-6-6-6-6-6--4-4-4-4-4-4-4-3-4-4-4-4-4-4----
A|-4-4-4-4-4-4-4-4-4-4-4-4--4-4-4-4-4-4-4-3-4-4-4-4-4-4----
E|--------------------------2-2-2-2-2-2-2-1-2-2-2-2-2-2----
Continued...
--------------------------------------------------------|
--------------------------------------------------------|
-6-6-6-6-6-6-6-6-6-6-6-6--------------------------------|
-6-6-6-6-6-6-6-6-6-6-6-6--6-6-6-6-6-6-6-5-6-6-6-6-6-6-6-|
-4-4-4-4-4-4-4-4-4-4-4-4--6-6-6-6-6-6-6-5-6-6-6-6-6-6-6-|
--------------------------4-4-4-4-4-4-4-3-4-4-4-4-4-4-4-|

Solo:

e|----------------------------------------------------------9----
B|---------------9-----------------------------9-9-11-9-9-11-----
G|-----------8s10-10-8-6-3---3-------6-8-6-8s10------------------
D|----------6--------------4---4--2------------------------------
A|-4-6-4-6s8------------------------4----------------------------
E|---------------------------------------------------------------
Continued...
------------------------------------------------9------9---------
-9-9-9-9-7----11b12-11b12-9-11b12-11b12-9--9h11---9h11-----------
-8-8-8-8---8--11b12-11b12---11b12-11b12--------------------------
-----------------------------------------------------------------
-----------------------------------------------------------------
-----------------------------------------------------------------
Continued...
------12-9-----------------------|
-9h11------11-9-------6-6--------|
----------------11-9--6-6-4h6p4--|
----------------------6-6--------|
---------------------------------|
---------------------------------|


Текст, аккорды и табулатура для песни "I Wanna Hump You", исполняет "Chixdiggit".
Используемые в песне аккорды можно найти в разделе Как брать аккорды. Аккорды для шестиструнной гитары. Другие песни можно найти на нашем сайте, воспользовавшись алфавитным указателем вверху страницы.


Слушать онлайн I Wanna Hump You


Chixdiggit!I Wanna Hump You на Яндекс.Музыке


 
Ошибка в тексте? Выделите ошибку и нажмите Ctrl+Enter