Hi I tabbed this song before 
but it had some mistakes in
it so i fixed it..its atleast
90% correct.
so..
Tuning:seven string drop A*(A,E,A,D,G,B,E)..you can just use a six aswell

intro
 gtr.1
E---------------------------------------------
B---------------------------------------------
G---------------------------------------------
D---------------------------------------------
A---------------------------------------------
E--5---5-5-6--5---5-5-6--5---5-5-6------------
A----0----------0----------0--------1-0-1-1-3-
pm   -          -          -|
gtr.2
&
1

E--------------------------------------------
B--------------------------------------------
G--------------------------------------------
D-7---7-7-8---7---7-7-8--7---7-7-8-----------
A-x---x-x-x---x---x-x-x--x---x-x-x-----------
E-5---5-5-6---5---5-5-6--5---5-5-6--1-0-1-13
A---0-----------0----------0--------1-0-1-13
pm  -           -          -|
E------------------------------------------------------
B------------------------------------------------------
G------------------------------------------------------
D------------------------------------------------------
A------------------------------------------------------
E--1----2---/6----2--1---2-------2-1--1--2---2--1-2----
A--1----2---/6----2--1---2-/5p0--2-1--1--2---2--1-2/5p0

E--------------------
B--------------------
G--------------------
D--999-/555-4---4-/10
A--xxx-/xxx-x---x-/x-
E--777-/333-2-0-2-/8-
A--------------------

E-------------------------
B-------------------------
G-------------------------
D-------------------------
A---7---3---2-------2---/8
E---7---3---2-------2---/8
A---7---3---2---0---2---/8


E--------------------------------------------
B--------------------------------------------
G--------------------------------------------
D-7---7-7-8-7---7-7-8--7----7-7-8------------
A--------------------------------------------
E---5---------5----------5----------1-0-1-1-3
A-----------------------------------1-0-1-1-3

E-------------------------------------------------
B-------------------------------------------------
G-------------------------------------------------
D-------------------------------------------------
A-------------------------------------------------
E---5~--00000-5~-00000-5h6p5-00000-5h6p5-1-0-1-1-3
A-------00000----00000-------00000-------1-0-1-1-3
pm      -----    -----       -----|
E----------------------------------------
B----------------------------------------
G----------------------------------------
D--7--8--10-8-7b(8)--7--8--10--8-10b(11)-
A--0-----------------0-------------------
E----------------------------------------
A----------------------------------------

E---------------------------
B---------------------------
G---------------------------
D---------------------------
E------1-2-1-2-3-2-1-1-1-1-3
A-2*b--1-2-1-2-3-2-1-1-1-1-3
pm     ---------------------|
E----------------------
B----------------------
G----------------------
D----------------------
A----------------------
E-1-0-1-3-1-0-0---0-0-1
A-1-0-1-3-1-0-0---0-0-1
pm----------------------|

E---------------------------------
B---------------------------------
G---------------------------------
D---------------------------------
A---------------------------------
E---------------------------------
A-1/13/1--1-0-1-1-3-1-0-0--0-0-1b-


Текст, аккорды и табулатура для песни "Taste My", исполняет "Chimaira".
Используемые в песне аккорды можно найти в разделе Как брать аккорды. Аккорды для шестиструнной гитары. Другие песни можно найти на нашем сайте, воспользовавшись алфавитным указателем вверху страницы.


 
Ошибка в тексте? Выделите ошибку и нажмите Ctrl+Enter