D-------------------------------------------------------------------------
A-------------------------------------------------------------------------
F-------------------------------------------------------------------------
Cx1-x1-x1-x1-x1-x1-x1-x1-x1-------0-------0-------0---------1-x1-x1-x1----
Gx1-x1-x1-x1-x1-x1-x1-x1-x1-------0-------0-------0---------1-x1-x1-x1----
Cx1-x1-x1-x1-x1-x1-x1-x1-x1-xxxxx-0-xxxxx-0-xxxxx-0-xxxx----1-x1-x1-x1----

D--------------------------------------------------------------------------
A--------------------------------------------------------------------------
F---------------------------------------------------------5/7-----5/7------
Cx1-x1-x1-x1-3-1-0-1--x1-x1-x1-x1----------------x1-x1-x1-x/x-3/5-x/x-3/5--
Gx1-x1-x1-x1-3-1-0-1--x1-x1-x1-x1----------------x1-x1-x1-3/5-3/5-3/5-3/5--
Cx1-x1-x1-x1-3-1-0-1--x1-x1-x1-x1-11111-4-1/24/1-x1-x1-x1-----3/5-----3/5--

D------------------------------------------------------------------------
A------------------------------------------------------------------------
F--------------------------------------1--------------------1------------
C-x1-x1-x1-----------------0---11/2---2----1-11-0--11/2---2-----1-11-----
G-x1-x1-x1-----------------0---11/2-2------1-11-0--11/2-2-------1-11-----
C-x1-x1-x1--11111-4-1/24/1-0---11/2------2-1-11-0--11/2-------2-1-11-----

D------------------------------------------------------------------------
A------------------------------------------------------------------------
F------------------------------------------------------------------------
C-x1-x1-x1-3-1-0-1--x1-x1-x1-3-1-0-1--x1-x1-x1-3-1-0-1--x1-x1-x1-3-1-0-1-
G-x1-x1-x1-3-1-0-1--x1-x1-x1-3-1-0-1--x1-x1-x1-3-1-0-1--x1-x1-x1-3-1-0-1-
C-x1-x1-x1-3-1-0-1--x1-x1-x1-3-1-0-1--x1-x1-x1-3-1-0-1--x1-x1-x1-3-1-0-1-

D--------------------------------------------------------------------------
A--------------------------------------------------------------------------
F------------------------------------------5/7-----------------------------
C--------0-------0-------0----x--x1-x1-x1--x/x-3/5--x1-x1-x1-------0------x
G--------0-------0-------0----x--x1-x1-x1--3/5-3/5--x1-x1-x1-------0------x
C--xxxxx-0-xxxxx-0-xxxxx-0-xxxx--x1-x1-x1------3/5--x1-x1-x1-xxxxx-0-xxxx-x


Текст, аккорды и табулатура для песни "Pictures In The Gold Room", исполняет "Chimaira".
Используемые в песне аккорды можно найти в разделе Как брать аккорды. Аккорды для шестиструнной гитары. Другие песни можно найти на нашем сайте, воспользовавшись алфавитным указателем вверху страницы.


 
Ошибка в тексте? Выделите ошибку и нажмите Ctrl+Enter