Mask Of Sanity


                                                              Michiel Quakernaat
Alexi Laiho


D||-------|-----------||---------------------------|--------------------------|
A||-------|-----------||---------------------------|--------------------------|
F||*------|----------*||*--9--9--9--9--9--9--9--9--|--9--9--9--9--7--7--7--7--|
C||*------|----------*||*--9--9--9--9--9--9--9--9--|--9--9--9--9--7--7--7--7--|
G||-------|-----------||---7--7--7--7--7--7--7--7--|--7--7--7--7--5--5--5--5--|
D||-------|-----------||---------------------------|--------------------------|

--------------------------|-------------------------------||
--------------------------|-------------------------------||
--9--9--9--9--9--9--9--9--|--9--9--9--9--12--12----------*||
--9--9--9--9--9--9--9--9--|--9--9--9--9--12--12--12--12--*||
--7--7--7--7--7--7--7--7--|--7--7--7--7--10--10--12--12---||
--------------------------|----------------------10--10---||


                                                         2x
---------7--7--5--5--7--7--|--------10--10--5--7--5------||
---5--5--------------------|--8--8-------------------8---||
*--------------------------|----------------------------*||
*--------------------------|----------------------------*||
---------------------------|-----------------------------||
---------------------------|-----------------------------||

--------7--7--5--5--7--7--|--------10--10/-5---------|-----------------------|
--5--5--------------------|--8--8---------------8----|-----------------------|
--------------------------|--------------------------|-----------------------|
--------------------------|--------------------------|-------------2----5----|
--------------------------|--------------------------|--2----------2----3----|
--------------------------|--------------------------|--0----0--0------------|

------------------------|-----------------------|-------------------------|
------------------------|-----------------------|-------------------------|
------------------------|----------7------------|-------------------------|
--------------9----7----|--9-------5--7----7----|--9----------------------|
--------------7----5----|--7----------5----5----|--7----------------------|
--0--0--0--0------------|-------0---------------|-------0--0--0--0--0--0--|

-----------------------|------------------------|-------------------|
-----------------------|------------------------|-------------------|
-----------------------|------------------------|--4----------------|
-------------2----5----|--------------9----7----|--4----------------|
--2----------2----3----|--------------7----5----|--2----------------|
--0----0--0------------|--0--0--0--0------------|-------------------|

--17----------------|-----------------------|------------------------|
--------------------|-----------------------|------------------------|
--------------------|-----------------------|------------------------|
--------------------|-------------2----5----|--------------9----7----|
--------------------|--2----------2----3----|--------------7----5----|
--------------------|--0----0--0------------|--0--0--0--0------------|

-----------------------|-------------------------|
-----------------------|-------------------------|
----------7------------|-------------------------|
--9-------5--7----7----|--9----------------------|
--7----------5----5----|--7----------------------|
-------0---------------|-------0--0--0--0--0--0--|

---------------------------------|----------------------------------|
---------------------------------|----------------------------------|
---------------------------------|----------------------------------|
--9------------------------------|----------------------------------|
--7--7-7-7-7-7-7-7-7-7-7-7-7-7-7-|--7-7-7-7-7-7-7-7-7-7-7-7-5-5-5-5-|
---------------------------------|----------------------------------|

------------------------------------------|-------------------|
------------------------------------------|-------------------|
------------------------------------------|-------------------|
------------------------------------------|--2----------------|
--10-10-10-10-10-10-10-10-9-9-9-9-7-7-7-7-|--2----------------|
------------------------------------------|--0----------------|

-----------------------|------------------------|-----------------------|
-----------------------|------------------------|-----------------------|
-----------------------|------------------------|----------7------------|
-------------2----5----|--------------9----7----|--9-------5--7----7----|
--2----------2----3----|--------------7----5----|--7----------5----5----|
--0----0--0------------|--0--0--0--0------------|-------0---------------|

-------------------------|---------------------------------|
-------------------------|---------------------------------|
-------------------------|---------------------------------|
--9----------------------|--9------------------------------|
--7----------------------|--7--7-7-7-7-7-7-7-7-7-7-7-7-7-7-|
-------0--0--0--0--0--0--|---------------------------------|

----------------------------------|----------------------------|
----------------------------------|--8----10--12--10--8--7--8--|
----------------------------------|----------------------------|
----------------------------------|----------------------------|
--7-7-7-7-7-7-7-7-7-7-7-7-5-5-5-5-|----------------------------|
----------------------------------|----------------------------|

-----------------------|-----------------------|--------------------------|
------5--7--8--7--5----|-----------------------|--------------------------|
-----------------------|--5-------7-------9----|--------------------------|
-----------------------|--5-------5-------9----|-----------4--5--4--------|
-----------------------|--3---------------7----|--------7-----------7--5--|
-----------------------|-------0-------0-------|--0--0--------------------|

-----------------------|--------------------------|-----------------------|
-----------------------|--------------------------|-----------------------|
--5-------7-------9----|--------------------------|--5-------7-------9----|
--5-------7-------9----|-----------4--5--4--------|--5-------5-------9----|
--3-------5-------7----|--------7-----------7--5--|--3---------------7----|
-------0-------0-------|--0--0--------------------|-------0-------0-------|

--------------------------|-------------------|-------------------------|
--------------------------|-------------------|-------------------------|
--------------------------|-------------------|-----------5--4----------|
-----------4--5--4--------|--5~---------------|--5--4-----------5--4~---|
--------7-----------7--5--|-------------------|--------7----------------|
--0--0--------------------|-------------------|-------------------------|

-----------------------|--------------------------|-----------------------|
-----------------------|--------------------------|-----------------------|
--5-------7-------9----|--------------------------|--5-------7-------9----|
--5-------5-------9----|-----------4--5--4--------|--5-------7-------9----|
--3---------------7----|--------7-----------7--5--|--3-------5-------7----|
-------0-------0-------|--0--0--------------------|-------0-------0-------|

--------------------------|-----------------------|--------------------------|
--------------------------|-----------------------|--------------------------|
--------------------------|--5-------7-------9----|--------------------------|
-----------4--5--4--------|--5-------5-------9----|-----------4--5--4--------|
--------7-----------7--5--|--3---------------7----|--------7-----------7--5--|
--0--0--------------------|-------0-------0-------|--0--0--------------------|

-----------------------|----------------------|--------------------------|
-----------------------|-----------8----------|--------------------------|
--7--------------------|----------------------|--------------------------|
--5--------5--4-----4--|----------------------|--------6--6--4--4--6--6--|
-----------------7-----|----------------------|--4--4--------------------|
-----------------------|--0--0--0-------------|--------------------------|

--------------------------|--------------------------|-------------------------|
--------------------------|--------------------------|-------------------------|
--------4--4--------------|--------------------------|-----4--4--4-------6--6--|
--2--2--------4--6--4-----|--------6--6--4--4--6--6--|-----4--4--4-------6--6--|
-----------------------7--|--4--4--------------------|--2--2--2--2----2--4--4--|
--------------------------|--------------------------|-------------------------|

--------------------------|--------------------------|
--------------------------|--------------------------|
--------------------------|--------4--4--------------|
--------6--6--4--4--6--6--|--2--2--------4--6--4-----|
--4--4--------------------|-----------------------7--|
--------------------------|--------------------------|

--------------------------|------16--14------12--11----------|
--------------------------|--14----------14----------14--12--|
--------------------------|----------------------------------|
--------6--6--4--4--6--6--|----------------------------------|
--4--4--------------------|----------------------------------|
--------------------------|----------------------------------|

--------------------------|--------7--7--------------|
--------9--9--7--7--9--9--|--------------7--9--7--5--|
--6--6--------------------|--9--9--------------------|
--------------------------|--------------------------|
--------------------------|--------------------------|
--------------------------|--------------------------|

--------------------------|------------------------------14--|
--------9--9--7--7--9--9--|--14--16--17--16--14--16--17------|
--6--6--------------------|----------------------------------|
--------------------------|----------------------------------|
--------------------------|----------------------------------|
--------------------------|----------------------------------|

--------------------------|--------7--7--------------|
--------9--9--7--7--9--9--|--------------7--9--7--5--|
--6--6--------------------|--9--9--------------------|
--------------------------|--------------------------|
--------------------------|--------------------------|
--------------------------|--------------------------|

--------------------------|------16--14----------------------|
--------9--9--7--7--9--9--|--14----------14--17--16--14--12--|
--6--6--------------------|----------------------------------|
--------------------------|----------------------------------|
--------------------------|----------------------------------|
--------------------------|----------------------------------|

--------------------------|--------------------------|
--------------------------|--------------------------|
--9--9--9--9--9--9--9--9--|--9--9--9--9--7--7--7--7--|
--9--9--9--9--9--9--9--9--|--9--9--9--9--7--7--7--7--|
--7--7--7--7--7--7--7--7--|--7--7--7--7--5--5--5--5--|
--------------------------|--------------------------|

--------------------------|------------------------------|
--------------------------|------------------------------|
--9--9--9--9--9--9--9--9--|--9--9--9--9--12--12----------|
--9--9--9--9--9--9--9--9--|--9--9--9--9--12--12--12--12--|
--7--7--7--7--7--7--7--7--|--7--7--7--7--10--10--12--12--|
--------------------------|----------------------10--10--|

--------------------------|--------------------------|
--------------------------|--------------------------|
--9--9--9--9--9--9--9--9--|--9--9--9--9--7--7--7--7--|
--9--9--9--9--9--9--9--9--|--9--9--9--9--7--7--7--7--|
--7--7--7--7--7--7--7--7--|--7--7--7--7--5--5--5--5--|
--------------------------|--------------------------|

--7h8h7---------------------|-------------------------|---------------------|
--------10--8--7-----7------|-----7--8--7-------------|---------------------|
------------------9-----7---|--9-------------9--7--9--|--4------------------|
----------------------------|-------------------------|-----------2----5----|
----------------------------|-------------------------|-----------2----3----|
----------------------------|-------------------------|---------------------|

------------------------|-----------------------|-------------------------|
------------------------|-----------------------|-------------------------|
------------------------|----------7------------|-------------------------|
--------------9----7----|--9-------5--7----7----|--9----------------------|
--------------7----5----|--7----------5----5----|--7----------------------|
--0--0--0--0------------|-------0---------------|-------0--0--0--0--0--0--|

---------------------------------|----------------------------------|
---------------------------------|----------------------------------|
---------------------------------|----------------------------------|
--9------------------------------|----------------------------------|
--7--7-7-7-7-7-7-7-7-7-7-7-7-7-7-|--7-7-7-7-7-7-7-7-7-7-7-7-5-5-5-5-|
---------------------------------|----------------------------------|

------------------------------------------|-------------------|
------------------------------------------|-------------------|
------------------------------------------|-------------------|
------------------------------------------|--2----------------|
--10-10-10-10-10-10-10-10-9-9-9-9-7-7-7-7-|--2----------------|
------------------------------------------|--0----------------|

-----------------------|------------------------|-----------------------|
-----------------------|------------------------|-----------------------|
-----------------------|------------------------|----------7------------|
-------------2----5----|--------------9----7----|--9-------5--7----7----|
--2----------2----3----|--------------7----5----|--7----------5----5----|
--0----0--0------------|--0--0--0--0------------|-------0---------------|

-------------------------|---------------------------------|
-------------------------|---------------------------------|
-------------------------|---------------------------------|
--9----------------------|--9------------------------------|
--7----------------------|--7--7-7-7-7-7-7-7-7-7-7-7-7-7-7-|
-------0--0--0--0--0--0--|---------------------------------|

----------------------------------|----------------------------|
----------------------------------|--8----10--12--10--8--7--8--|
----------------------------------|----------------------------|
----------------------------------|----------------------------|
--7-7-7-7-7-7-7-7-7-7-7-7-5-5-5-5-|----------------------------|
----------------------------------|----------------------------|


                                                            3x
-------------------||-------------------|-------------------||
-------------------||-------------------|-------------------||
-------------------||*------------------|------------------*||
--2----------------||*------------------|------------------*||
--2----------------||-------------------|-------------------||
--0----------------||-------------------|-------------------||


                                                 3x
-------------------------|-----------------------||--------------------------|
-------------------------|-----------------------||--------------------------|
*--12------------12--14--|--16------------------*||*-------------------------|
*------------------------|--------14------------*||*--5--5--5--5--5----------|
-------------------------|-----------------------||---3--3--3--3--3----2--2--|
-------------------------|-----------------------||--------------------0--0--|


                          2x
--------------------------||-------------------------|--------------------|
--------------------------||-------------------------|--------------------|
-------------------------*||-------------------------|--------------------|
-------------------------*||--5--5--5--5--5----------|--------------------|
--2--2--2----2--2--2--2---||--3--3--3--3--3----2--2--|--7/-------2--------|
--0--0--0----0--0--0--0---||-------------------0--0--|--------------------|

-------------------------|-------------------------|-------------------------|
-------------------------|-------------------------|-------------------------|
-------------------------|-------------------------|-------------------------|
-------------------------|-------------------------|-------------------------|
--2--2--2--2--2----2--2--|--2--2--2----2--2--2--2--|--2--2--2--2--2----2--2--|
--0--0--0--0--0----0--0--|--0--0--0----0--0--0--0--|--0--0--0--0--0----0--0--|

----------------------|-------------------------|-------------------------|
----------------------|-------------------------|-------------------------|
----------------------|-------------------------|-------------------------|
-------------5b-------|-------------------------|-------------------------|
--2--2--2-------------|--2--2--2--2--2----2--2--|--2--2--2----2--2--2--2--|
--0--0--0-------------|--0--0--0--0--0----0--0--|--0--0--0----0--0--0--0--|

----------------------------------|---------------------|
----------------------------------|---------------------|
----------------------------------|---------------------|
--9-9-9-8-8-8-7-7-7-6-6-6-5-5-5-4-|--4--4--3b-----------|
----------------------------------|---------------------|
----------------------------------|---------------------|

--------------------------|--------------------------|
--15----------------15----|--------------------------|
--14b-------14--14b-------|--14--14b---14--------12~-|
--------------------------|--------------------------|
--------------------------|--------------------------|
--------------------------|--------------------------|

------------------------------------------------|
------------------------------------------------|
--12-12-14-16-16-15-14-14-12-12-11-11-12-12-9-9-|
------------------------------------------------|
------------------------------------------------|
------------------------------------------------|

-------------------------------|
-------------------------------|
--11-11-9-9-11-11-7-7-9b-------|
-------------------------------|
-------------------------------|
-------------------------------|

-----------------------------------------------14-|
--15-------15-17-------15-19-------17-19-15-17----|
-----14-16-------14-16-------14-16----------------|
--------------------------------------------------|
--------------------------------------------------|
--------------------------------------------------|

--15-------15-17-------17-18-20-22-20-------------|--------------19b---------|
-----15-17-------17-19----------------22-20-19-17-|--17b---15b---------------|
--------------------------------------------------|--------------------14b---|
--------------------------------------------------|--------------------------|
--------------------------------------------------|--------------------------|
--------------------------------------------------|--------------------------|

--14-12-10------------------------------------|----------------------------17--|
-----------14-12-10-12-10---------------------|--10----------------15----------|
--------------------------11-9-7-9------------|------11----------------14------|
-----------------------------------12-11-9-12-|----------12/-14----------------|
----------------------------------------------|--------------------------------|
----------------------------------------------|--------------------------------|

--14----------19--17--22--24----|------------------------|
------15--17--------------------|-------------------3b---|
--------------------------------|--14b---9b---12b--------|
--------------------------------|------------------------|
--------------------------------|------------------------|
--------------------------------|------------------------|

--------------------------17------|
----------15------------------15--|
--12--14------14--12--14----------|
----------------------------------|
----------------------------------|
----------------------------------|

--------------------------------------------------|
-----------12-14-15----------12-14-15-12-14-15-14-|
--11-12-14----------11-12-14----------------------|
--------------------------------------------------|
--------------------------------------------------|
--------------------------------------------------|

--12-14-15-12-14-15-14-15-17-15-17-15-------|----------------------------|
--------------------------------------------|----------------------------|
--------------------------------------17b---|--7------------7------------|
--------------------------------------------|--7------------7------------|
--------------------------------------------|--5----5-5-5-5-5----5-5-5-5-|
--------------------------------------------|----------------------------|

-------------------------|----------------------------|
-------------------------|----------------------------|
--7------------7---------|----------------------------|
--7------------7----7----|--9------------9------------|
--5----5-5-5-5-5----7----|--9------------9------------|
--------------------5----|--7----7-7-7-7-7----7-7-7-7-|

-------------------------|----------------------------|
-------------------------|----------------------------|
-------------------------|--7------------7------------|
--9------------9----7----|--7------------7------------|
--9------------9----7----|--5----5-5-5-5-5----5-5-5-5-|
--7----7-7-7-7-7----5----|----------------------------|

-------------------------|----------------------------|
-------------------------|----------------------------|
--7------------7---------|----------------------------|
--7------------7----7----|--9------------9------------|
--5----5-5-5-5-5----7----|--9------------9------------|
--------------------5----|--7----7-7-7-7-7----7-7-7-7-|

-------------------------|--19-22-19-22-24-19-22-19-22-19----22-19----22-22-|
-------------------------|--------------------------------22-------22-------|
-------------------------|--------------------------------------------------|
--9------------9----7----|--------------------------------------------------|
--9------------9----7----|--------------------------------------------------|
--7----7-7-7-7-7----5----|--------------------------------------------------|

-----------------------------12-14-15-17-15-|
--15-14-12-14-12-15--15--14-----------------|
--------------------------------------------|
--------------------------------------------|
--------------------------------------------|
--------------------------------------------|

--15-17-19-17-15-17-19----------------------------|
-----------------------17-15-12-15-17-15-12-15-17-|
--------------------------------------------------|
--------------------------------------------------|
--------------------------------------------------|
--------------------------------------------------|

--19------------------------------|
----------17------17------17------|
------16--------------14------16--|
--------------14------------------|
----------------------------------|
----------------------------------|

--------------------------------------------------|
--12-14-15-14-12-14-15-14-12-14-17-15-14-15-17-15-|
--------------------------------------------------|
--------------------------------------------------|
--------------------------------------------------|
--------------------------------------------------|

-----------------------------------12-14-19-17-19-|
--12-14-15-14-12-14-15-14-12-14-15----------------|
--------------------------------------------------|
--------------------------------------------------|
--------------------------------------------------|
--------------------------------------------------|

--22--21--19--22--21--17------|--19----------------|
------------------------------|--------------------|
------------------------------|--------------------|
------------------------------|--------------------|
------------------------------|--------------------|
------------------------------|--------------------|


                                                        2x
|---------------------------|--------5--5---------------||
|---------7--7--5--5--7--7--|--3--3--------5--7--5------||
|*--4--4--------------------|-----------------------7--*||
|*--------------------------|--------------------------*||
|---------------------------|---------------------------||
|---------------------------|---------------------------||

--------------------------|--------5--5--------------|
--------7--7--5--5--7--7--|--3--3--------5--7--5-----|
--4--4--------------------|-----------------------7--|
--------------------------|--------------------------|
--------------------------|--------------------------|
--------------------------|--------------------------|

--------------------------|--------7--7--------------|
--------9--9--7--7--9--9--|--------------7--9--7--5--|
--6--6--------------------|--9--9--------------------|
--------------------------|--------------------------|
--------------------------|--------------------------|
--------------------------|--------------------------|

--------------------------|------------------------------14--|
--------9--9--7--7--9--9--|--14--16--17--16--14--16--17------|
--6--6--------------------|----------------------------------|
--------------------------|----------------------------------|
--------------------------|----------------------------------|
--------------------------|----------------------------------|

--------------------------|--------7--7--------------|
--------9--9--7--7--9--9--|--------------7--9--7--5--|
--6--6--------------------|--9--9--------------------|
--------------------------|--------------------------|
--------------------------|--------------------------|
--------------------------|--------------------------|

--------------------------|------16--14----------------------|
--------9--9--7--7--9--9--|--14----------14--17--16--14--12--|
--6--6--------------------|----------------------------------|
--------------------------|----------------------------------|
--------------------------|----------------------------------|
--------------------------|----------------------------------|

--------------------------|--------7--7--------------|
--------9--9--7--7--9--9--|--------------7--9--7--5--|
--6--6--------------------|--9--9--------------------|
--------------------------|--------------------------|
--------------------------|--------------------------|
--------------------------|--------------------------|

--------------------------|------------------------------14--|
--------9--9--7--7--9--9--|--14--16--17--16--14--16--17------|
--6--6--------------------|----------------------------------|
--------------------------|----------------------------------|
--------------------------|----------------------------------|
--------------------------|----------------------------------|

--------------------------|--------7--7--------------|
--------9--9--7--7--9--9--|--------------7--9--7--5--|
--6--6--------------------|--9--9--------------------|
--------------------------|--------------------------|
--------------------------|--------------------------|
--------------------------|--------------------------|

--------------------------||----------------------------||
--------9--9--7--7--9--9--||----------------------------||
--6--6--------------------||*--------------------------*||
--------------------------||*-----6--4-----------------*||
--------------------------||---4--------4--7--6--4--6---||
--------------------------||----------------------------||

----------------------------------|----------------------------------|
----------------------------------|----------------------------------|
----------------------------------|----------------------------------|
----------------------------------|----------------------------------|
--4-4-4-4-4-4-4-4-4-4-4-4-4-4-4-4-|--4-4-4-4-4-4-4-4-4-4-4-4-4-4-4-4-|
----------------------------------|----------------------------------|

----------------------|--------------------|----||
----------------------|--------------------|----||
--9--6------8--4------|--9--6--------------|----||
--9--6------8--4------|--9--6--------------|----||
--7--4------6--2------|--7--4--------------|----||
----------------------|--------------------|----||


Текст, аккорды и табулатура для песни "Mask Of Sanity", исполняет "Children Of Bodom".
Используемые в песне аккорды можно найти в разделе Как брать аккорды. Аккорды для шестиструнной гитары. Другие песни можно найти на нашем сайте, воспользовавшись алфавитным указателем вверху страницы.


 
Ошибка в тексте? Выделите ошибку и нажмите Ctrl+Enter