DOWNFALL

Gtr I (D A D G B E) - 'Guitar 1'
Gtr II (D A D G B E) - 'Guitar 2'
Gtr III (E A D G B E) - 'Keyboard (Orchestra hit)'
Gtr IV (E A D G B E) - 'Keyboard (I don't know)'
Gtr V (E A D G B E) - 'Keyboard (solo)'


  Q=199
 4/4
  Gtr I
   W                         W
|-------------------------|-------------------------|
|-------------------------|-------------------------|
|-------------------------|-------------------------|
|-------------------------|-------------------------|
|-------------------------|-------------------------|
|-------------------------|-------------------------|
|
| Gtr IV
|  E  E  E  E  E  E  E  E    E  E  E  E  E  E  E  E
|-15----------15----------|-15----------15----------|
|----15----------15-------|----15----------15-------|
|-------------------------|-------------------------|
|-------17----------17----|-------17----------17----|
|----------17----------17-|----------17----------17-|
|-------------------------|-------------------------|


   W                         S S  E  E  E  E.    S  S S  S S
|-------------------------|-----------------------------------|
|-------------------------|-----------------------------------|
|-------------------------|-----------------------------------|
|-------------------------|----------------3-----1------------|
|-------------------------|----------------------5--1---------|
|-------------------------|--0-------0--0-------------3--0----|
|
|  E  E  E  E  E  E  E  E    E    E  E  E  E   E    E    E
|-15----------15----------|-15------------15------------------|
|----15----------15-------|------15-----------15--------------|
|-------------------------|-----------------------------------|
|-------17----------17----|---------17-------------17---------|
|----------17----------17-|------------17---------------17----|
|-------------------------|-----------------------------------|


   E  E  E  E  E  E  E  E    E  E  E  E  E  E  E  E
|-------------------------|-------------------------|
|-------------------------|-------------------------|
|--3-----------2----------|-------------------------|
|-----------3-----------3-|--5-----3--5--------3--5-|
|--------5-----------5----|-----5-----------5-------|
|-----5-----------5-------|--------------5----------|
|
|  E  E  E  E  E  E  E  E    E  E  E  E  E  E  E  E
|-15----------15----------|-15----------15----------|
|----15----------15-------|----15----------15-------|
|-------------------------|-------------------------|
|-------17----------17----|-------17----------17----|
|----------17----------17-|----------17----------17-|
|-------------------------|-------------------------|


   E  E  E  E  E  E  E  E    E  E  E  E  E  E  E  E
|-------------------------|-------------------------|
|-------------------------|-------------------------|
|--3-----------2----------|-------------------------|
|-----------3-----------3-|--5-----3--5--------3--5-|
|--------5-----------5----|-----5-----------5-------|
|-----5-----------5-------|--------------5----------|
|
|  E  E  E  E  E  E  E  E    E  E  E  E  E  E  E  E
|-15----------15----------|-15----------15----------|
|----15----------15-------|----15----------15-------|
|-------------------------|-------------------------|
|-------17----------17----|-------17----------17----|
|----------17----------17-|----------17----------17-|
|-------------------------|-------------------------|


   E  E  E  E  E  E  E  E    E   E  E  E  E  E  E  E
|-------------------------|--------------------------|
|-------------------------|--------------------------|
|--3-----------2----------|--------------------------|
|-----------3-----------3-|--5------3--5--------3--5-|
|--------5-----------5----|------5-----------5-------|
|-----5-----------5-------|---------------5----------|
|
| Gtr II
|  W                        +W
|-------------------------|--------------------------|
|-------------------------|--------------------------|
|-------------------------|--------------------------|
|--1----------------------|-(1)----------------------|
|--1----------------------|-(1)----------------------|
|--1----------------------|-(1)----------------------|
|
| Gtr IV
|  E  E  E  E  E  E  E  E    E   E  E  E  E  E  E  E
|-15----------15----------|-15-----------15----------|
|----16----------16-------|-----16----------16-------|
|-------15----------15----|--------15----------15----|
|----------17----------17-|-----------17----------17-|
|-------------------------|--------------------------|
|-------------------------|--------------------------|


   E  E  E  E  E  E  E  E    E  E  E  E  E  E  E  E
|-------------------------|-------------------------|
|-------------------------|-------------------------|
|--3-----------2----------|--------------------3--2-|
|-----------3-----------3-|--5-----3--5-------------|
|--------5-----------5----|-----5-----------5-------|
|-----5-----------5-------|--------------5----------|
|
|  Q     Q     H             H           E  E  Q
|-------------------------|-------------------------|
|-------------------------|-------------------------|
|-------------------------|-------------------------|
|--1----------------------|--------------0--3-------|
|--1----------------------|--------------0--3-------|
|--1----------------------|--------------0--3-------|
|
|  E  E  E  E  E  E  E  E    E  E  E  E  E  E  E  E
|-15----------17----------|-15----------15----------|
|----16----------16-------|----16----------16-------|
|-------15----------15----|-------15----------15----|
|----------17----------17-|----------17----------17-|
|-------------------------|-------------------------|
|-------------------------|-------------------------|


   E  E  E  E  E  E  E  E    E   E  E  E  E  E  E  E
|-------------------------|--------------------------|
|-------------------------|--------------------------|
|--3-----------2----------|--------------------------|
|-----------3-----------3-|--5------3--5--------3--5-|
|--------5-----------5----|------5-----------5-------|
|-----5-----------5-------|---------------5----------|
|
|  W                        +W
|-------------------------|--------------------------|
|-------------------------|--------------------------|
|-------------------------|--------------------------|
|--5----------------------|-(5)----------------------|
|--5----------------------|-(5)----------------------|
|--5----------------------|-(5)----------------------|
|
|  E  E  E  E  E  E  E  E    E   E  E  E  E  E  E  E
|-15----------15----------|-15-----------15----------|
|----15----------15-------|-----15----------15-------|
|-------------------------|--------------------------|
|-------17----------17----|--------17----------17----|
|----------17----------17-|-----------17----------17-|
|-------------------------|--------------------------|


   E  E  E  E  E  E  E  E    E  E  E  E  E  E  E  E
|-------------------------|-------------------------|
|-------------------------|-------------------------|
|--3-----------2----------|-------------------------|
|-----------3-----------3-|--5-----3--5--------3--5-|
|--------5-----------5----|-----5-----------5-------|
|-----5-----------5-------|--------------5----------|
|
|  Q     Q     H             W
|-------------------------|-------------------------|
|-------------------------|-------------------------|
|-------------------------|-------------------------|
|--5----------------------|-------------------------|
|--5----------------------|-------------------------|
|--5----------------------|-------------------------|
|
|  E  E  E  E  E  E  E  E    E  E  E  E  E  E  E  E
|-15----------15----------|-15----------15----------|
|----15----------15-------|----15----------15-------|
|-------------------------|-------------------------|
|-------17----------17----|-------17----------17----|
|----------17----------17-|----------17----------17-|
|-------------------------|-------------------------|


   E  E  E  E  E  E  E  E    E   E  E  E  E  E  E  E
|-------------------------|--------------------------|
|-------------------------|--------------------------|
|--3-----------2----------|--------------------------|
|-----------3-----------3-|--5------3--5--------3--5-|
|--------5-----------5----|------5-----------5-------|
|-----5-----------5-------|---------------5----------|
|
|  W                        +W
|-------------------------|--------------------------|
|-------------------------|--------------------------|
|-------------------------|--------------------------|
|--1----------------------|-(1)----------------------|
|--1----------------------|-(1)----------------------|
|--1----------------------|-(1)----------------------|
|
|  E  E  E  E  E  E  E  E    E   E  E  E  E  E  E  E
|-15----------15----------|-15-----------15----------|
|----16----------16-------|-----16----------16-------|
|-------15----------15----|--------15----------15----|
|----------17----------17-|-----------17----------17-|
|-------------------------|--------------------------|
|-------------------------|--------------------------|


   E  E  E  E  E  E  E  E    E  E  E  E  E  E  E  E
|-------------------------|-------------------------|
|-------------------------|-------------------------|
|--3-----------2----------|--------------------3--2-|
|-----------3-----------3-|--5-----3--5-------------|
|--------5-----------5----|-----5-----------5-------|
|-----5-----------5-------|--------------5----------|
|
|  E  E  Q     H             W
|-------------------------|-------------------------|
|-------------------------|-------------------------|
|-------------------------|-------------------------|
|--1--1-------------------|-------------------------|
|--1--1-------------------|-------------------------|
|--1--1-------------------|-------------------------|
|
|  E  E  E  E  E  E  E  E    E  E  E  E  E  E  E  E
|-15----------17----------|-15----------15----------|
|----16----------16-------|----16----------16-------|
|-------15----------15----|-------15----------15----|
|----------17----------17-|----------17----------17-|
|-------------------------|-------------------------|
|-------------------------|-------------------------|


   E  E  E  E  E  E  E  E    E  E  E  E  E  E  E  E
|-------------------------|-------------------------|
|-------------------------|-------------------------|
|--3-----------2----------|-------------------------|
|-----------3-----------3-|--5-----3--5--------3--5-|
|--------5-----------5----|-----5-----------5-------|
|-----5-----------5-------|--------------5----------|
|
|  E  E  E  E  E  E  E  E    E  E  E  E  E  E  E  E
|-------------------------|-------------------------|
|-------------------------|-------------------------|
|-------------------------|-------------------------|
|--5--5--5--5--5--5--5--5-|--5--5--5--5--5--5--5--5-|
|--5--5--5--5--5--5--5--5-|--5--5--5--5--5--5--5--5-|
|--5--5--5--5--5--5--5--5-|--5--5--5--5--5--5--5--5-|
|
|  E  E  E  E  E  E  E  E    E  E  E  E  E  E  E  E
|-15----------15----------|-15----------15----------|
|----15----------15-------|----15----------15-------|
|-------------------------|-------------------------|
|-------17----------17----|-------17----------17----|
|----------17----------17-|----------17----------17-|
|-------------------------|-------------------------|


   E  E  E  E  E  E  E  E    E  E  E  E  E  E  E  E
|-------------------------|-------------------------|
|-------------------------|-------------------------|
|--3-----------2----------|-------------------------|
|-----------3-----------3-|--5-----3--5--------3--5-|
|--------5-----------5----|-----5-----------5-------|
|-----5-----------5-------|--------------5----------|
|
|  E  E  E  E  E  E  E  E    Q     Q     Q     Q
|-------------------------|-------------------------|
|-------------------------|-------------------------|
|-------------------------|-------------------------|
|--5--5--5--5--5--5--5--5-|-------------------------|
|--5--5--5--5--5--5--5--5-|-------------------------|
|--5--5--5--5--5--5--5--5-|--7-----8----10----12----|
|
|  E  E  E  E  E  E  E  E    E  E  E  E  E  E  E  E
|-15----------15----------|-15----------15----------|
|----15----------15-------|----15----------15-------|
|-------------------------|-------------------------|
|-------17----------17----|-------17----------17----|
|----------17----------17-|----------17----------17-|
|-------------------------|-------------------------|


   E  E  E  E  E  E  E  E    E  E  E  E  E  E  E  E
|-------------------------|-------------------------|
|-------------------------|-------------------------|
|--3-----------2----------|-------------------------|
|-----------3-----------3-|--5-----3--5--------3--5-|
|--------5-----------5----|-----5-----------5-------|
|-----5-----------5-------|--------------5----------|
|
|  E  E  E  E  E  E  E  E    E  E  E  E  E  E  E  E
|-------------------------|-------------------------|
|-------------------------|-------------------------|
|-------------------------|-------------------------|
|-13-13-13-13-13-13-13-13-|-13-13-13-13-13-13-13-13-|
|-13-13-13-13-13-13-13-13-|-13-13-13-13-13-13-13-13-|
|-13-13-13-13-13-13-13-13-|-13-13-13-13-13-13-13-13-|
|
|  E  E  E  E  E  E  E  E    E  E  E  E  E  E  E  E
|-15----------15----------|-15----------15----------|
|----16----------16-------|----16----------16-------|
|-------15----------15----|-------15----------15----|
|----------17----------17-|----------17----------17-|
|-------------------------|-------------------------|
|-------------------------|-------------------------|


   E  E  E  E  E  E  E  E    E  E  E  E  E  E  E  E
|-------------------------|-------------------------|
|-------------------------|-------------------------|
|--3-----------2----------|--------------------3--2-|
|-----------3-----------3-|--5-----3--5-------------|
|--------5-----------5----|-----5-----------5-------|
|-----5-----------5-------|--------------5----------|
|
|  E  E  E  E  E  E  E  E    E  E  E  E  E  E  E  E
|-------------------------|-------------------------|
|-------------------------|-------------------------|
|-------------------------|-------------------------|
|-13-13-13-13-13-13-13-13-|-13-13-13-13-13-13-13-13-|
|-13-13-13-13-13-13-13-13-|-13-13-13-13-13-13-13-13-|
|-13-13-13-13-13-13-13-13-|-13-13-13-13-13-13-13-13-|
|
|  E  E  E  E  E  E  E  E    E  E  E  E  E  E  E  E
|-15----------17----------|-15----------15----------|
|----16----------16-------|----16----------16-------|
|-------15----------15----|-------15----------15----|
|----------17----------17-|----------17----------17-|
|-------------------------|-------------------------|
|-------------------------|-------------------------|


   E  E  E  E  E  E  E  E    E  E  E  E  E  E  E  E
|-------------------------|-------------------------|
|-------------------------|-------------------------|
|--3-----------2----------|-------------------------|
|-----------3-----------3-|--5-----3--5--------3--5-|
|--------5-----------5----|-----5-----------5-------|
|-----5-----------5-------|--------------5----------|
|
|  E  E  E  E  E  E  E  E    E  E  E  E  E  E  E  E
|-------------------------|-------------------------|
|-------------------------|-------------------------|
|-------------------------|-------------------------|
|--5--5--5--5--5--5--5--5-|--5--5--5--5--5--5--5--5-|
|--5--5--5--5--5--5--5--5-|--5--5--5--5--5--5--5--5-|
|--5--5--5--5--5--5--5--5-|--5--5--5--5--5--5--5--5-|
|
|  E  E  E  E  E  E  E  E    E  E  E  E  E  E  E  E
|-15----------15----------|-15----------15----------|
|----15----------15-------|----15----------15-------|
|-------------------------|-------------------------|
|-------17----------17----|-------17----------17----|
|----------17----------17-|----------17----------17-|
|-------------------------|-------------------------|


   E  E  E  E  E  E  E  E    E  E  E  E  E  E  E  E
|-------------------------|-------------------------|
|-------------------------|-------------------------|
|--3-----------2----------|-------------------------|
|-----------3-----------3-|--5-----3--5--------3--5-|
|--------5-----------5----|-----5-----------5-------|
|-----5-----------5-------|--------------5----------|
|
|  E  E  E  E  E  E  E  E    Q     Q     Q     Q
|-------------------------|-------------------------|
|-------------------------|-------------------------|
|-------------------------|-------------------------|
|--5--5--5--5--5--5--5--5-|-------------------------|
|--5--5--5--5--5--5--5--5-|-------------------------|
|--5--5--5--5--5--5--5--5-|--7-----8----10----12----|
|
|  E  E  E  E  E  E  E  E    E  E  E  E  E  E  E  E
|-15----------15----------|-15----------15----------|
|----15----------15-------|----15----------15-------|
|-------------------------|-------------------------|
|-------17----------17----|-------17----------17----|
|----------17----------17-|----------17----------17-|
|-------------------------|-------------------------|


   E  E  E  E  E  E  E  E    E  E  E  E  E  E  E  E
|-------------------------|-------------------------|
|-------------------------|-------------------------|
|--3-----------2----------|-------------------------|
|-----------3-----------3-|--5-----3--5--------3--5-|
|--------5-----------5----|-----5-----------5-------|
|-----5-----------5-------|--------------5----------|
|
|  E  E  E  E  E  E  E  E    E  E  E  E  E  E  E  E
|-------------------------|-------------------------|
|-------------------------|-------------------------|
|-------------------------|-------------------------|
|-13-13-13-13-13-13-13-13-|-13-13-13-13-13-13-13-13-|
|-13-13-13-13-13-13-13-13-|-13-13-13-13-13-13-13-13-|
|-13-13-13-13-13-13-13-13-|-13-13-13-13-13-13-13-13-|
|
|  E  E  E  E  E  E  E  E    E  E  E  E  E  E  E  E
|-15----------15----------|-15----------15----------|
|----16----------16-------|----16----------16-------|
|-------15----------15----|-------15----------15----|
|----------17----------17-|----------17----------17-|
|-------------------------|-------------------------|
|-------------------------|-------------------------|


   E  E  E  E  E  E  E  E    E  E  E  E E E Q
|-------------------------|--------------------|
|--3-----------1----------|--------------------|
|--3-----------2----------|--3--------3--------|
|-----------3-----------3-|--5-----3--5-3-1----|
|--------5-----------5----|-----5-------3-1----|
|-----5-----------5-------|-------------3-1----|
|
|  E  E  E  E  E  E  E  E    E  E  E  E E E Q
|-------------------------|--------------------|
|-------------------------|--------------------|
|-------------------------|--------------------|
|-13-13-13-13-13-13-13-13-|-13-13-13-13-3-1----|
|-13-13-13-13-13-13-13-13-|-13-13-13-13-3-1----|
|-13-13-13-13-13-13-13-13-|-13-13-13-13-3-1----|
|
|  E  E  E  E  E  E  E  E    E  E  E  E H
|-15----------17----------|-15-----------------|
|----16----------16-------|----16--------------|
|-------15----------15----|-------15-----------|
|----------17----------17-|----------17--------|
|-------------------------|--------------------|
|-------------------------|--------------------|


  Gtrs I, II
  W          W          W          W
|----------|----------|----------|------|
|----------|----------|----------|------|
|----------|----------|----------|------|
|-0--------|-1--------|-5--------|-8----|
|-0--------|-1--------|-5--------|-8----|
|-0--------|-1--------|-5--------|-8----|


  Gtr I
  W          W          W          W
|----------|----------|----------|------|
|----------|----------|----------|------|
|----------|----------|----------|-7----|
|-1--------|-5--------|-8--------|-7----|
|-1--------|-5--------|-8--------|-5----|
|-1--------|-5--------|-8--------|------|
|
| Gtr II
| W          W          W          W
|----------|----------|----------|------|
|----------|----------|----------|------|
|----------|----------|----------|------|
|-1--------|-5--------|-3--------|-4----|
|-1--------|-5--------|----------|------|
|-1--------|-5--------|----------|------|


  E E E E E E E E   E E E E E E E E
|-----------------|-----------------|
|-----------------|-----------------|
|-7-7-7-7-7-7-7-7-|-8-8-8-8-8-8-8-8-|
|-----------------|-----------------|
|-5-5-5-5-5-5-5-5-|-6-6-6-6-6-6-6-6-|
|-----------------|-----------------|
|
| E E E E E E E E   E E E E E E E E
|-----------------|-----------------|
|-6-6-6-6-6-6-6-6-|-8-8-8-8-8-8-8-8-|
|-7-7-7-7-7-7-7-7-|-8-8-8-8-8-8-8-8-|
|-----------------|-----------------|
|-----------------|-----------------|
|-----------------|-----------------|


  E E E E E E E E    E  E  E  E  E  E  E  E
|-----------------|-------------------------|
|-8-8-8-8-8-8-8-8-|-11-11-11-11-11-11-11-11-|
|-0-0-0-0-0-0-0-0-|-------------------------|
|-----------------|--8--8--8--8--8--8--8--8-|
|-----------------|-------------------------|
|-----------------|-------------------------|
|
| E E E E E E E E    E  E  E  E  E  E  E  E
|-----------------|-------------------------|
|-----------------|--6--6--6--6--6--6--6--6-|
|-7-7-7-7-7-7-7-7-|--7--7--7--7--7--7--7--7-|
|-8-8-8-8-8-8-8-8-|-------------------------|
|-----------------|-------------------------|
|-----------------|-------------------------|


  E E E E E E E E   E E E E E E E E
|-----------------|-----------------|
|-----------------|-8-8-8-8-8-8-8-8-|
|-8-8-8-8-8-8-8-8-|-0-0-0-0-0-0-0-0-|
|-----------------|-----------------|
|-6-6-6-6-6-6-6-6-|-----------------|
|-----------------|-----------------|
|
| E E E E E E E E   E E E E E E E E
|-----------------|-----------------|
|-8-8-8-8-8-8-8-8-|-----------------|
|-8-8-8-8-8-8-8-8-|-7-7-7-7-7-7-7-7-|
|-----------------|-8-8-8-8-8-8-8-8-|
|-----------------|-----------------|
|-----------------|-----------------|


   E  E  E  E  E  E  E  E    E  E  E  E  E  E  E  E
|-------------------------|-10-10-10-10-10-10-10-10-|
|-11-11-11-11-11-11-11-11-|-------------------------|
|-------------------------|--7--7--7--7--7--7--7--7-|
|--8--8--8--8--8--8--8--8-|-------------------------|
|-------------------------|-------------------------|
|-------------------------|-------------------------|
|
|  E  E  E  E  E  E  E  E    E  E  E  E  E  E  E  E
|-------------------------|-------------------------|
|--6--6--6--6--6--6--6--6-|--6--6--6--6--6--6--6--6-|
|--7--7--7--7--7--7--7--7-|--7--7--7--7--7--7--7--7-|
|-------------------------|-------------------------|
|-------------------------|-------------------------|
|-------------------------|-------------------------|


  E E E E E E E E   E E E E E E E E
|-----------------|-----------------|
|-----------------|-----------------|
|-7-7-7-7-7-7-7-7-|-8-8-8-8-8-8-8-8-|
|-0-0-0-0-0-0-0-0-|-----------------|
|-----------------|-6-6-6-6-6-6-6-6-|
|-----------------|-----------------|
|
| E E E E E E E E   E E E E E E E E
|-----------------|-----------------|
|-6-6-6-6-6-6-6-6-|-8-8-8-8-8-8-8-8-|
|-7-7-7-7-7-7-7-7-|-8-8-8-8-8-8-8-8-|
|-----------------|-----------------|
|-----------------|-----------------|
|-----------------|-----------------|


  E E E E E E E E    E  E  E  E  E  E  E  E
|-----------------|-------------------------|
|-8-8-8-8-8-8-8-8-|-11-11-11-11-11-11-11-11-|
|-0-0-0-0-0-0-0-0-|-------------------------|
|-----------------|--8--8--8--8--8--8--8--8-|
|-----------------|-------------------------|
|-----------------|-------------------------|
|
| E E E E E E E E    E  E  E  E  E  E  E  E
|-----------------|-------------------------|
|-----------------|--6--6--6--6--6--6--6--6-|
|-7-7-7-7-7-7-7-7-|--7--7--7--7--7--7--7--7-|
|-8-8-8-8-8-8-8-8-|-------------------------|
|-----------------|-------------------------|
|-----------------|-------------------------|


  E E E E E E E E   E E E E E E E E
|-----------------|-----------------|
|-----------------|-8-8-8-8-8-8-8-8-|
|-8-8-8-8-8-8-8-8-|-0-0-0-0-0-0-0-0-|
|-----------------|-----------------|
|-6-6-6-6-6-6-6-6-|-----------------|
|-----------------|-----------------|
|
| E E E E E E E E   E E E E E E E E
|-----------------|-----------------|
|-8-8-8-8-8-8-8-8-|-----------------|
|-8-8-8-8-8-8-8-8-|-7-7-7-7-7-7-7-7-|
|-----------------|-8-8-8-8-8-8-8-8-|
|-----------------|-----------------|
|-----------------|-----------------|


   E  E  E  E  E  E  E  E    E  E  E  E  E  E  E  E
|-------------------------|-10-10-10-10-10-10-10-10-|
|-11-11-11-11-11-11-11-11-|-------------------------|
|-------------------------|--7--7--7--7--7--7--7--7-|
|--8--8--8--8--8--8--8--8-|-------------------------|
|-------------------------|-------------------------|
|-------------------------|-------------------------|
|
|  E  E  E  E  E  E  E  E    E  E  E  E  E  E  E  E
|-------------------------|-------------------------|
|--6--6--6--6--6--6--6--6-|--6--6--6--6--6--6--6--6-|
|--7--7--7--7--7--7--7--7-|--7--7--7--7--7--7--7--7-|
|-------------------------|-------------------------|
|-------------------------|-------------------------|
|-------------------------|-------------------------|


  Gtrs I, II
   E  E  S S  E  E  E  E  E    W
|---------------------------|-------------------------|
|---------------------------|-------------------------|
|---------------------------|-------------------------|
|--5----------6-----3-----5-|-------------------------|
|--5----------6-----3-----5-|-------------------------|
|--5-----5-5--6-----3-----5-|-------------------------|
|
| Gtr IV
|  E  E  E    E  E  E  E  E    E  E  E  E  E  E  E  E
|-15------------15----------|-15----------15----------|
|----15------------15-------|----15----------15-------|
|---------------------------|-------------------------|
|-------17------------17----|-------17----------17----|
|------------17----------17-|----------17----------17-|
|---------------------------|-------------------------|


   E  E  S S  E  E  E  E  E    W
|---------------------------|-------------------------|
|---------------------------|-------------------------|
|---------------------------|-------------------------|
|--6----------1-----3-----6-|-------------------------|
|--6----------1-----3-----6-|-------------------------|
|--6-----1-1--1-----3-----6-|-------------------------|
|
|  E  E  E    E  E  E  E  E    E  E  E  E  E  E  E  E
|-16------------16----------|-16----------16----------|
|----16------------16-------|----16----------16-------|
|---------------------------|-------------------------|
|-------18------------18----|-------18----------18----|
|------------18----------18-|----------18----------18-|
|---------------------------|-------------------------|


  Gtr I
   E  E  S S  E  E  E  E  E    W
|---------------------------|-------------------------|
|---------------------------|-------------------------|
|---------------------------|-------------------------|
|--5----------6-----3-----5-|-------------------------|
|--5----------6-----3-----5-|-------------------------|
|--5-----5-5--6-----3-----5-|-------------------------|
|
| Gtr II
|  E  E  S S  E  E  E  E  E    W
|---------------------------|-------------------------|
|---------------------------|-------------------------|
|---------------------------|-------------------------|
|--5----------6-----3-----5-|-------------------------|
|--5----------6-----3-----5-|-------------------------|
|--5-----5-5--6-----3-----5-|-------------------------|
|
| Gtr IV
|  E  E  E    E  E  E  E  E    E  E  E  E  E  E  E  E
|---------------15----------|-15----------15----------|
|-20---------------15-------|----15----------15-------|
|----19---------------------|-------------------------|
|-------17------------17----|-------17----------17----|
|------------17----------17-|----------17----------17-|
|---------------------------|-------------------------|


   E  E  S S  E  E  E  E  E    E  E  E  E  E  S  S  E  E
|---------------------------|-----------------------------|
|---------------------------|-----8-10-11-13-11-13--------|
|---------------------------|-------------------15-14-14--|
|--6----------1-----3-----6-|-----------------------------|
|--6----------1-----3-----6-|-----------------------------|
|--6-----1-1--1-----3-----6-|-----------------------------|
|
|  E  E  S S  E  E  E  E  E    E  E  E  E  E  S  S  E  E
|---------------------------|-----------------------------|
|---------------------------|-----4--6--8-10--8-10--------|
|---------------------------|-------------------12-10-10--|
|--6----------1-----3-----6-|-----------------------------|
|--6----------1-----3-----6-|-----------------------------|
|--6-----1-1--1-----3-----6-|-----------------------------|
|
|  E  E  E    E  E  E  E  E    E  E  E  E  E  E     E  E
|-16------------16----------|-16----------16--------------|
|----16------------16-------|----16----------16-----------|
|---------------------------|-----------------------------|
|-------18------------18----|-------18-------------18-----|
|------------18----------18-|----------18-------------18--|
|---------------------------|-----------------------------|


   Q     S  S  S  S  S S  E  Q       W
|---------------------------------|-------------------------|
|---------------------------------|-------------------------|
|-15----14------------------------|-------------------------|
|-------18-16-13-10--8------------|-------------------------|
|----------20-17-14---------------|-------------------------|
|---------------------------------|-------------------------|
|
|  Q     S  S  S  S  S S  E  Q       W
|---------------------------------|-------------------------|
|--8-----7------------------------|-------------------------|
|-------10--8---------------------|-------------------------|
|----------12--9--6--4------------|-------------------------|
|-------------13-10--8------------|-------------------------|
|---------------------------------|-------------------------|
|
|  E  E  E     E     E    E  E  E    E  E  E  E  E  E  E  E
|---------------------------------|----13-12-13----13----13-|
|----15-13----15---------15-------|-------------14----13----|
|-------------------15------14-15-|-------------------------|
|---------------------------------|-15----------------------|
|-17------------------------------|-------------------------|
|---------------------------------|-------------------------|


   W                         W
|-------------------------|--------------------------|
|-------------------------|--------------------------|
|-------------------------|--------------------------|
|-------------------------|--------------------------|
|-------------------------|--------------------------|
|-------------------------|--------------------------|
|
|  W                         W
|-------------------------|--------------------------|
|-------------------------|--------------------------|
|-------------------------|--------------------------|
|-------------------------|--------------------------|
|-------------------------|--------------------------|
|-------------------------|--------------------------|
|
|  E  E  E  E  E  E  E  E    E  E  E  E  E  E  E  E
|-------------------------|----11-10-11----11----10--|
|----13-11-13----13-------|-------------13----11-----|
|-------------13----12-13-|-12-----------------------|
|-------------------------|--------------------------|
|-15----------------------|--------------------------|
|-------------------------|--------------------------|


   W                        W
|------------------------|-------------------------|
|------------------------|-------------------------|
|------------------------|-------------------------|
|------------------------|-------------------------|
|------------------------|-------------------------|
|------------------------|-------------------------|
|
|  W                        W
|------------------------|-------------------------|
|------------------------|-------------------------|
|------------------------|-------------------------|
|------------------------|-------------------------|
|------------------------|-------------------------|
|------------------------|-------------------------|
|
|  E  E E  E  E  E  E  E    E  E  E  E  E  E  E  E
|----10-8-10----10-------|----13-12-13----13----13-|
|------------11----10-11-|-------------14----13----|
|------------------------|-10----------------------|
|-12---------------------|-------------------------|
|------------------------|-------------------------|
|------------------------|-------------------------|


   W                         S S  E  E.    S  S S  E    S S  S S
|-------------------------|--------------------------------------|
|-------------------------|--------------------------------------|
|-------------------------|--------------------------------------|
|-------------------------|---------------------1--3------2------|
|-------------------------|-------------------2-5--7------6--3-0-|
|-------------------------|--0-------3-----5---------------------|
|
|  W                         S S  E  E.    S  S S  S S  S S  S S
|-------------------------|--------------------------------------|
|-------------------------|------------------------2------1------|
|-------------------------|---------------------3--6------4--2---|
|-------------------------|-------------------3-7------------6-3-|
|-------------------------|----------1-----4--7----------------7-|
|-------------------------|--0-----------------------------------|
|
|  E  E  E  E  E  E  E  E    E    E  E   E    E    E    E    E
|-------------------------|------11-10--11--------11--------10---|
|----13-11-13----13-------|------------------13--------11--------|
|-------------13----12-13-|-12-----------------------------------|
|-------------------------|--------------------------------------|
|-15----------------------|--------------------------------------|
|-------------------------|--------------------------------------|


  Gtrs I, II
   H.                Q       W
|-------------------------|-------------------------|
|-------------------------|-------------------------|
|-------------------------|-------------------------|
|--5----------------------|--8----------------------|
|--5----------------------|--8----------------------|
|--5----------------------|--8----------------------|
|
| Gtr IV
|  E   E E  E  E  E  E  E    E  E  E  E  E  E  E  E
|-----10-8-10----10-------|----13-12-13----13----13-|
|-------------11----10-11-|-------------14----13----|
|-------------------------|-10----------------------|
|-12----------------------|-------------------------|
|-------------------------|-------------------------|
|-------------------------|-------------------------|


   W                         W
|-------------------------|-------------------------|
|-------------------------|-------------------------|
|-------------------------|--5----------------------|
|--3----------------------|--5----------------------|
|--3----------------------|--3----------------------|
|--3----------------------|-------------------------|
|
|  E  E  E  E  E  E  E  E    E  E  E  E  E  E  E  E
|-------------------------|----11-10-11----11----10-|
|----13-11-13----13-------|-------------13----11----|
|-------------13----12-13-|-12----------------------|
|-------------------------|-------------------------|
|-15----------------------|-------------------------|
|-------------------------|-------------------------|


   W                        W
|------------------------|-------------------------|
|------------------------|-------------------------|
|------------------------|-------------------------|
|--5---------------------|--8----------------------|
|--5---------------------|--8----------------------|
|--5---------------------|--8----------------------|
|
|  E  E E  E  E  E  E  E    E  E  E  E  E  E  E  E
|----10-8-10----10-------|----13-12-13----13----13-|
|------------11----10-11-|-------------14----13----|
|------------------------|-10----------------------|
|-12---------------------|-------------------------|
|------------------------|-------------------------|
|------------------------|-------------------------|


   W                         W
|-------------------------|-------------------------|
|-------------------------|-------------------------|
|-------------------------|--5----------------------|
|--3----------------------|--5----------------------|
|--3----------------------|--3----------------------|
|--3----------------------|-------------------------|
|
|  E  E  E  E  E  E  E  E    E  E  E  E  E  E  E  E
|-------------------------|----11-10-11----11----10-|
|----13-11-13----13-------|-------------13----11----|
|-------------13----12-13-|-12----------------------|
|-------------------------|-------------------------|
|-15----------------------|-------------------------|
|-------------------------|-------------------------|


  Gtr I
  E  E  E  E  +E   E  E  E    +E   E  E  E  +E   E  E E    W
|--------------------------|----------------------------|-------|
|--------------------------|----------------------------|-------|
|--------------------------|----------------------------|-------|
|-5-----5--3--(3)-----3--5-|--(5)-----5--3--(3)-----3---|--1----|
|-5-----5--3--(3)-----3--5-|--(5)-----5--3--(3)-----3---|--1----|
|-5--5--5--3--(3)--3--3--5-|--(5)--5--5--3--(3)--3--3-1-|--1----|
|
| Gtr II
| E  E  E  E  +E   E  E  E    +E   E  E  E  +E   E  Q      W
|--------------------------|----------------------------|-------|
|--------------------------|----------------------------|--8----|
|--------------------------|------------10-(10)----10---|-------|
|-5--7--8-10-(10)--8-10-12-|-(12)-10-12---------12------|-------|
|--------------------------|----------------------------|-------|
|--------------------------|----------------------------|-------|
|
| Gtr IV
| E  E  E  E  +E   E  E  E    +E   E  E  E  +E   E  Q      W
|--------------------------|------------13-(13)----13---|-15----|
|-8-10-11-13-(13)-11-13-15-|-(15)-13-15---------15------|-------|
|--------------------------|----------------------------|-------|
|--------------------------|----------------------------|-------|
|--------------------------|----------------------------|-------|
|--------------------------|----------------------------|-------|


   S  S S S S S E S S S S S S E    H           H         H           H
|-------------------------------|---------------------|---------------------|
|-------------------------------|---------------------|---------------------|
|-------------------------------|---------------------|---------------------|
|-------------------------------|--5-----------0------|--5-----------0------|
|-------------------------------|--5-----------0------|--5-----------0------|
|--1--1-1-1-1-----1-1-1-1-1-----|--5-----------0------|--5-----------0------|
|
| +W                               E  E  E  E  Q   Q     E  E  E  E  Q   Q
|-------------------------------|-18-------18-17------|-18-------18-17------|
|-(8)---------------------------|-------20--------18--|-------20--------18--|
|-------------------------------|----19---------------|----19---------------|
|-------------------------------|---------------------|---------------------|
|-------------------------------|---------------------|---------------------|
|-------------------------------|---------------------|---------------------|


   H           H             H           H
|-------------------------|---------------------|
|-------------------------|---------------------|
|-------------------------|---------------------|
|--1-----------3----------|--5-----------0------|
|--1-----------3----------|--5-----------0------|
|--1-----------3----------|--5-----------0------|
|
|  E  E  E  E  E  E  E  E    E  E  E  E  Q   Q
|-------------------------|---------------------|
|-20-------20-22-------22-|-23-------23-22------|
|-------20----------22----|-------24--------22--|
|----20----------22-------|----24---------------|
|-------------------------|---------------------|
|-------------------------|---------------------|


   H           H         H           H
|---------------------|---------------------|
|---------------------|---------------------|
|---------------------|---------------------|
|--5-----------0------|--5-----------0------|
|--5-----------0------|--5-----------0------|
|--5-----------0------|--5-----------0------|
|
|  E  E  E  E  Q   Q     E  E  E  E  Q   Q
|---------------------|---------------------|
|-23-------23-22------|-23-------23-22------|
|-------24--------22--|-------24--------22--|
|----24---------------|----24---------------|
|---------------------|---------------------|
|---------------------|---------------------|


   H           H             E  E  E  E  H
|-------------------------|---------------------|
|-------------------------|---------------------|
|-------------------------|---------------------|
|--1-----------3----------|--5------------------|
|--1-----------3----------|--5-----------8------|
|--1-----------3----------|--5--7--8-10---------|
|
|  E  E  E  E  E  E  E  E    E  E  E  E  Q   Q
|-------------------------|---------------------|
|-20-------20-22-------22-|-23-------23-22------|
|-------20----------22----|-------24--------22--|
|----20----------22-------|----24---------------|
|-------------------------|---------------------|
|-------------------------|---------------------|


   H           H         H           H
|---------------------|---------------------|
|---------------------|---------------------|
|---------------------|---------------------|
|--5-----------0------|--5-----------0------|
|--5-----------0------|--5-----------0------|
|--5-----------0------|--5-----------0------|
|
|  E  E  E  E  Q   Q     E  E  E  E  Q   Q
|---------------------|---------------------|
|-23-------23-22------|-23-------23-22------|
|-------24--------22--|-------24--------22--|
|----24---------------|----24---------------|
|---------------------|---------------------|
|---------------------|---------------------|


   H           H             H           H
|-------------------------|---------------------|
|-------------------------|---------------------|
|-------------------------|---------------------|
|--1-----------3----------|--5-----------0------|
|--1-----------3----------|--5-----------0------|
|--1-----------3----------|--5-----------0------|
|
|  E  E  E  E  E  E  E  E    E  E  E  E  Q   Q
|-------------------------|---------------------|
|-20-------20-22-------22-|-23-------23-22------|
|-------20----------22----|-------24--------22--|
|----20----------22-------|----24---------------|
|-------------------------|---------------------|
|-------------------------|---------------------|


   H           H         H           H
|---------------------|---------------------|
|---------------------|---------------------|
|---------------------|---------------------|
|--5-----------0------|--5-----------0------|
|--5-----------0------|--5-----------0------|
|--5-----------0------|--5-----------0------|
|
|  E  E  E  E  Q   Q     E  E  E  E  Q   Q
|---------------------|---------------------|
|-23-------23-22------|-23-------23-22------|
|-------24--------22--|-------24--------22--|
|----24---------------|----24---------------|
|---------------------|---------------------|
|---------------------|---------------------|


   H           H             W
|-------------------------|---------------------|
|-------------------------|---------------------|
|-------------------------|---------------------|
|--1-----------3----------|--5------------------|
|--1-----------3----------|--5------------------|
|--1-----------3----------|--5------------------|
|
|  E  E  E  E  E  E  E  E    E  E  E  E  Q   Q
|-------------------------|---------------------|
|-20-------20-22-------22-|-23-------23-22------|
|-------20----------22----|-------24--------22--|
|----20----------22-------|----24---------------|
|-------------------------|---------------------|
|-------------------------|---------------------|
|
| Gtr III
|  W                         W
|-------------------------|---------------------|
|-------------------------|---------------------|
|-------------------------|---------------------|
|-------------------------|---------------------|
|-------------------------|---------------------|
|-------------------------|---------------------|


   E  E S S  E   E   E   E   E     E  E E E E E E E
|------------------------------|---------------------|
|------------------------------|------3-1-3-4-3-1-3--|
|------------------------------|---------------------|
|--5---------6-------3-------5-|---------------------|
|--5---------6-------3-------5-|---------------------|
|--5----5-5--6-------3-------5-|---------------------|
|
|  E  E S S  E   E   E   E   E     E  E E E E E E E
|------------------------------|---------------------|
|------------------------------|---------------------|
|------------------------------|---------------------|
|--5---------6-------3-------5-|------5-3-5-6-5-3-5--|
|--5---------6-------3-------5-|---------------------|
|--5----5-5--6-------3-------5-|---------------------|
|
|  Q.        E  +E   E  +E   E    +E  E Q   H
|-15--------16-(16)------------|---------------------|
|-------------------18-(18)-20-|-(20)----------------|
|-12--------13-(13)------------|---------------------|
|-------------------15-(15)-17-|-(17)----------------|
|------------------------------|---------------------|
|------------------------------|---------------------|


   E  E S S  E   E   E   E   E     E  E E E E E E E
|------------------------------|--------------------|
|------------------------------|------4-3-4-6-4-3-4-|
|------------------------------|--------------------|
|--6---------1-------3-------6-|--------------------|
|--6---------1-------3-------6-|--------------------|
|--6----1-1--1-------3-------6-|--------------------|
|
|  E  E S S  E   E   E   E   E     E  E E E E E E E
|------------------------------|--------------------|
|------------------------------|--------------------|
|------------------------------|--------------------|
|--6---------1-------3-------6-|------6-5-6-8-6-5-6-|
|--6---------1-------3-------6-|--------------------|
|--6----1-1--1-------3-------6-|--------------------|
|
|  Q.        E  +E   E  +E   E    +E  E Q   H
|------------------------------|--------------------|
|-21------------------------21-|-(21)---------------|
|-----------20-(20)-22-(22)----|--------------------|
|-18------------------------18-|-(18)---------------|
|-----------18-(18)-20-(20)----|--------------------|
|------------------------------|--------------------|


   E  E S S  E   E   E   E   E     E  E E E E E E E
|------------------------------|--------------------|
|------------------------------|------3-1-3-4-3-1-3-|
|------------------------------|--------------------|
|--5---------6-------3-------5-|--------------------|
|--5---------6-------3-------5-|--------------------|
|--5----5-5--6-------3-------5-|--------------------|
|
|  E  E S S  E   E   E   E   E     E  E E E E E E E
|------------------------------|--------------------|
|------------------------------|--------------------|
|------------------------------|--------------------|
|--5---------6-------3-------5-|------5-3-5-6-5-3-5-|
|--5---------6-------3-------5-|--------------------|
|--5----5-5--6-------3-------5-|--------------------|
|
|  Q.        E  +E   E  +E   E    +E  E Q   H
|------------------------------|--------------------|
|-20--------21-(21)------------|--------------------|
|-------------------22-(22)-24-|-(24)---------------|
|-17--------18-(18)------------|--------------------|
|-------------------20-(20)-22-|-(22)---------------|
|------------------------------|--------------------|


   E  E S S  E   E   E   E   E     E  E E E E E E E
|------------------------------|--------------------|
|------------------------------|------4-3-4-6-4-3-4-|
|------------------------------|--------------------|
|--6---------1-------3-------6-|--------------------|
|--6---------1-------3-------6-|--------------------|
|--6----1-1--1-------3-------6-|--------------------|
|
|  E  E S S  E   E   E   E   E     E  E E E E E E E
|------------------------------|--------------------|
|------------------------------|--------------------|
|------------------------------|--------------------|
|--6---------1-------3-------6-|------6-5-6-8-6-5-6-|
|--6---------1-------3-------6-|--------------------|
|--6----1-1--1-------3-------6-|--------------------|
|
|  Q.        E  +E   E  +E   E    +E  E Q   H
|------------------------------|--------------------|
|-21------------------------21-|-(21)---------------|
|-----------20-(20)-22-(22)----|--------------------|
|-18------------------------18-|-(18)---------------|
|-----------18-(18)-20-(20)----|--------------------|
|------------------------------|--------------------|


   E E E E E E E E   E E E E E  E   E   E
|------------------|-----------------------|
|------------------|-----------------------|
|--3-------2-------|-----------------------|
|--------3-------3-|-5---3-5--------3---5--|
|------5-------5---|---5--------5----------|
|----5-------5-----|---------5-------------|
|
|  E E Q   H         H       E  E   E   E
|------------------|-----------------------|
|------------------|-----------------------|
|------------------|-----------------------|
|--5---------------|------------3-------5--|
|--5---------------|------------3-------5--|
|--5---------------|------------3-------5--|
|
|  W                 H       E  E  +E   E
|------------------|-----------------------|
|-20---------------|-----------18-(18)-20--|
|------------------|-----------------------|
|-17---------------|-----------15-(15)-17--|
|------------------|-----------------------|
|------------------|-----------------------|


    E  E E E E E E E   E E E E E E E E   E E E E E E E E    E  E E E E E E E
|--------------------|-----------------|-----------------|-------------------|
|--------------------|-----------------|-----------------|-------------------|
|---3--------2-------|-----------------|-3-------2-------|-------------------|
|----------3-------3-|-5---3-5-----3-5-|-------3-------3-|--5----3-5-----3-5-|
|--------5-------5---|---5-------5-----|-----5-------5---|-----5-------5-----|
|------5-------5-----|---------5-------|---5-------5-----|-----------5-------|
|
| Gtr III                                Gtr II
|  +W                  W                 W                 +W
|--------------------|-----------------|-----------------|-------------------|
|-(20)---------------|-----------------|-----------------|-------------------|
|--------------------|-----------------|-----------------|-------------------|
|-(17)---------------|-----------------|-1---------------|-(1)---------------|
|--------------------|-----------------|-1---------------|-(1)---------------|
|--------------------|-----------------|-1---------------|-(1)---------------|


  E E E E E E E E   E E Q  E E Q    W          W
|-----------------|---------------|----------|------|
|-----------------|---------------|----------|------|
|-3-------2-------|---------------|----------|------|
|-------3-------3-|-5------3-1----|-0--------|-1----|
|-----5-------5---|--------3-1----|-0--------|-1----|
|---5-------5-----|--------3-1----|-0--------|-1----|
|
| E E Q   H         H      E E Q    W          W
|-----------------|---------------|----------|------|
|-----------------|---------------|----------|------|
|-----------------|---------------|----------|------|
|-1-1-------------|--------3-1----|-0--------|-1----|
|-1-1-------------|--------3-1----|-0--------|-1----|
|-1-1-------------|--------3-1----|-0--------|-1----|


  W          W          W             W
|----------|----------|-------------|--------------|
|----------|----------|-------------|--------------|
|----------|----------|-------------|--------------|
|-5--------|-8--------|-1-----------|-5------------|
|-5--------|-8--------|-1-----------|-5------------|
|-5--------|-8--------|-1-----------|-5------------|
|
| W          W          Q  Q  Q  Q    Q  Q  Q   Q
|----------|----------|-------------|--------------|
|----------|----------|-------------|--------------|
|----------|----------|-------------|--------------|
|-5--------|-8--------|-------------|--------------|
|-5--------|-8--------|-------------|--------------|
|-5--------|-8--------|-1--0--1--3--|-5--7--8--10--|


   W               W
|---------------|-----------|
|---------------|-----------|
|---------------|--7--------|
|--8------------|--7--------|
|--8------------|--5--------|
|--8------------|-----------|
|
|  H     Q   Q     W
|---------------|-----------|
|---------------|-----------|
|---------------|-----------|
|---------------|-----------|
|---------------|-----------|
|-12----15--17--|-19--------|


   E  E  E  E  E  E  E  E    E  E  E  E  E  E  E  E
|-------------------------|-------------------------|
|-------------------------|-------------------------|
|--7--7--7--7--7--7--7--7-|--8--8--8--8--8--8--8--8-|
|-------------------------|-------------------------|
|--5--5--5--5--5--5--5--5-|--6--6--6--6--6--6--6--6-|
|-------------------------|-------------------------|
|
|  E  E  E  E  E  E  E  E    E  E  E  E  E  E  E  E
|-------------------------|-------------------------|
|-------------------------|-------------------------|
|-------------------------|-------------------------|
|-------------------------|-17-17-17-17-17-17-17-17-|
|-20-20-20-20-20-20-20-20-|-18-18-18-18-18-18-18-18-|
|-24-24-24-24-24-24-24-24-|-------------------------|


   E  E  E  E  E  E  E  E    E  E  E  E  E  E  E  E
|-------------------------|-------------------------|
|--8--8--8--8--8--8--8--8-|-11-11-11-11-11-11-11-11-|
|--0--0--0--0--0--0--0--0-|-------------------------|
|-------------------------|--8--8--8--8--8--8--8--8-|
|-------------------------|-------------------------|
|-------------------------|-------------------------|
|
|  E  E  E  E  E  E  E  E    E  E  E  E  E  E  E  E
|-------------------------|-------------------------|
|-------------------------|-------------------------|
|-------------------------|-------------------------|
|-------------------------|-15-15-15-15-15-15-15-15-|
|-17-17-17-17-17-17-17-17-|-17-17-17-17-17-17-17-17-|
|-20-20-20-20-20-20-20-20-|-------------------------|


   E  E  E  E  E  E  E  E    E  E  E  E  E  E  E  E
|-------------------------|-------------------------|
|-------------------------|--8--8--8--8--8--8--8--8-|
|--8--8--8--8--8--8--8--8-|--0--0--0--0--0--0--0--0-|
|-------------------------|-------------------------|
|--6--6--6--6--6--6--6--6-|-------------------------|
|-------------------------|-------------------------|
|
|  E  E  E  E  E  E  E  E    E  E  E  E  E  E  E  E
|-------------------------|-------------------------|
|-------------------------|-------------------------|
|-------------------------|-------------------------|
|-17-17-17-17-17-17-17-17-|-------------------------|
|-18-18-18-18-18-18-18-18-|-17-17-17-17-17-17-17-17-|
|-------------------------|-20-20-20-20-20-20-20-20-|


   E  E  E  E  E  E  E  E    E  E  E  E  E  E  E  E
|-------------------------|-10-10-10-10-10-10-10-10-|
|-11-11-11-11-11-11-11-11-|-------------------------|
|-------------------------|--7--7--7--7--7--7--7--7-|
|--8--8--8--8--8--8--8--8-|-------------------------|
|-------------------------|-------------------------|
|-------------------------|-------------------------|
|
|  E  E  E  E  E  E  E  E    E  E  E  E  E  E  E  E
|-------------------------|-------------------------|
|-------------------------|-------------------------|
|-------------------------|-------------------------|
|-15-15-15-15-15-15-15-15-|-15-15-15-15-15-15-15-15-|
|-17-17-17-17-17-17-17-17-|-17-17-17-17-17-17-17-17-|
|-------------------------|-------------------------|


   E  E  E  E  E  E  E  E    E  E  E  E  E  E  E  E
|-------------------------|-------------------------|
|-------------------------|-------------------------|
|--7--7--7--7--7--7--7--7-|--8--8--8--8--8--8--8--8-|
|--0--0--0--0--0--0--0--0-|-------------------------|
|-------------------------|--6--6--6--6--6--6--6--6-|
|-------------------------|-------------------------|
|
|  E  E  E  E  E  E  E  E    E  E  E  E  E  E  E  E
|-------------------------|-------------------------|
|-------------------------|-------------------------|
|-------------------------|-------------------------|
|-15-15-15-15-15-15-15-15-|-17-17-17-17-17-17-17-17-|
|-17-17-17-17-17-17-17-17-|-18-18-18-18-18-18-18-18-|
|-------------------------|-------------------------|


   E  E  E  E  E  E  E  E    E  E  E  E  E  E  E  E
|-------------------------|-------------------------|
|--8--8--8--8--8--8--8--8-|-11-11-11-11-11-11-11-11-|
|--0--0--0--0--0--0--0--0-|-------------------------|
|-------------------------|--8--8--8--8--8--8--8--8-|
|-------------------------|-------------------------|
|-------------------------|-------------------------|
|
|  E  E  E  E  E  E  E  E    E  E  E  E  E  E  E  E
|-------------------------|-------------------------|
|-------------------------|-------------------------|
|-------------------------|-------------------------|
|-------------------------|-15-15-15-15-15-15-15-15-|
|-17-17-17-17-17-17-17-17-|-17-17-17-17-17-17-17-17-|
|-20-20-20-20-20-20-20-20-|-------------------------|


   E  E  E  E  E  E  E  E    E  E  E  E  E  E  E  E
|-------------------------|-------------------------|
|-------------------------|--8--8--8--8--8--8--8--8-|
|--8--8--8--8--8--8--8--8-|--0--0--0--0--0--0--0--0-|
|-------------------------|-------------------------|
|--6--6--6--6--6--6--6--6-|-------------------------|
|-------------------------|-------------------------|
|
|  E  E  E  E  E  E  E  E    E  E  E  E  E  E  E  E
|-------------------------|-------------------------|
|-------------------------|-------------------------|
|-------------------------|-------------------------|
|-17-17-17-17-17-17-17-17-|-------------------------|
|-18-18-18-18-18-18-18-18-|-17-17-17-17-17-17-17-17-|
|-------------------------|-20-20-20-20-20-20-20-20-|


   E  E  E  E  E  E  E  E    E  E  E  E  E  E  E  E   W          W
|-------------------------|-10-10-10-10-10-10-10-10-|----------|------|
|-11-11-11-11-11-11-11-11-|-------------------------|----------|------|
|-------------------------|--7--7--7--7--7--7--7--7-|----------|------|
|--8--8--8--8--8--8--8--8-|-------------------------|----------|------|
|-------------------------|-------------------------|----------|------|
|-------------------------|-------------------------|----------|------|
|
|  E  E  E  E  E  E  E  E    E  E  E  E  E  E  E  E   W          W
|-------------------------|-------------------------|----------|------|
|-------------------------|-------------------------|----------|------|
|-------------------------|-------------------------|----------|------|
|-15-15-15-15-15-15-15-15-|-15-15-15-15-15-15-15-15-|----------|------|
|-17-17-17-17-17-17-17-17-|-17-17-17-17-17-17-17-17-|----------|------|
|-------------------------|-------------------------|----------|------|


  H    Q  E  E    W           W           +H.      E E
|--------------|-----------|-----------|---------------|
|--------------|-----------|--1--------|--(1)----------|
|--------------|-----------|--0--------|--(0)----------|
|------------1-|--1--------|-----------|---------------|
|------------1-|--1--------|--3--------|--(3)----------|
|------------1-|--1--------|-----------|-----------3-3-|
|
| H    Q  E  E    W           W           +H.      E E
|--------------|-----------|-----------|---------------|
|--------------|-----------|-----------|---------------|
|--------------|-----------|-----------|---------------|
|-----------13-|-13--------|-10--------|-(10)----------|
|-----------13-|-13--------|-10--------|-(10)----------|
|-----------13-|-13--------|-10--------|-(10)------3-3-|


  H    H      +Q   E E Q  E E   W          +W
|-----------|-----------------|----------|--------|
|-----------|-----------------|----------|--------|
|-3---------|----------5------|-5--------|-(5)----|
|-3----3----|-(3)------3------|-5--------|-(5)----|
|-1----3----|-(3)--3-3-3--3-3-|-3--------|-(3)----|
|------3----|-(3)-------------|----------|--------|
|
| H    H      +Q   E E Q  E E   W          +W
|-----------|-----------------|----------|--------|
|-----------|-----------------|----------|--------|
|-3---------|-----------------|-5--------|-(5)----|
|-3----3----|-(3)------3------|-5--------|-(5)----|
|-1----3----|-(3)------3------|-3--------|-(3)----|
|------3----|-(3)--3-3-3--3-3-|----------|--------|


  E E +Q   H      +Q   E E Q  E   E
|---------------|---------------------|
|---3-(3)-------|---------------------|
|---2-(2)-------|---------------------|
|---0-(0)--3----|-(3)------3----------|
|----------3----|-(3)------3----------|
|----------3----|-(3)--3-3-3--3---3---|
|
| E E +Q   H      +H       Q  S S S S
|---------------|---------------------|
|---3-(3)-------|---------------------|
|---2-(2)-------|---------------------|
|---0-(0)--3----|-(3)-----------------|
|----------3----|-(3)------1--0-------|
|----------3----|-(3)-----------5-3-1-|
|
| Gtr IV
| W                W
|---------------|---------------------|
|---------------|---------------------|
|---------------|---------------------|
|---------------|---------------------|
|---------------|---------------------|
|---------------|---------------------|


   W                        +W
|-------------------------|--------------------------|
|-------------------------|--------------------------|
|-------------------------|--------------------------|
|--5----------------------|-(5)----------------------|
|--5----------------------|-(5)----------------------|
|--5----------------------|-(5)----------------------|
|
|  W                        +H            H
|-------------------------|--------------------------|
|-------------------------|--------------------------|
|-------------------------|--------------------------|
|--5----------------------|-(5)----------------------|
|--5----------------------|-(5)----------------------|
|--5----------------------|-(5)----------------------|
|
|  E  E  E  E  E  E  E  E    E   E  E  E  E  E  E  E
|-15----------15----------|-15-----------15----------|
|----15----------15-------|-----15----------15-------|
|-------------------------|--------------------------|
|-------17----------17----|--------17----------17----|
|----------17----------17-|-----------17----------17-|
|-------------------------|--------------------------|


  Gtr II
   W                         H           Q     E  S S
|-------------------------|---------------------------|
|-------------------------|---------------------------|
|-------------------------|---------------------------|
|-------------------------|-------------------------1-|
|-------------------------|-------------------------5-|
|-------------------------|--------------------8-10---|
|
| Gtr IV
|  E  E  E  E  E  E  E  E    E  E  E  E  E  E  E  E
|-15----------15----------|-15----------15------------|
|----15----------15-------|----15----------15---------|
|-------------------------|---------------------------|
|-------17----------17----|-------17----------17------|
|----------17----------17-|----------17----------17---|
|-------------------------|---------------------------|


   H           H             E  E  S E    S +S  E    S  E  E
|-------------------------|-----------------------------------|
|-------------------------|-----------------------------------|
|-------------------------|-----------------------------------|
|--3----------------------|--2--1--0--------------------------|
|--7----------------------|----------4----3-(3)-2----1--0-----|
|-------------------------|--------------------------------6--|
|
|  E  E  E  E  E  E  E  E    E  E  E    E    E     E    E  E
|-15----------15----------|-15--------------15----------------|
|----15----------15-------|----15-----------------15----------|
|-------------------------|-----------------------------------|
|-------17----------17----|-------17-------------------17-----|
|----------17--


Текст, аккорды и табулатура для песни "Downfall", исполняет "Children Of Bodom".
Используемые в песне аккорды можно найти в разделе Как брать аккорды. Аккорды для шестиструнной гитары. Другие песни можно найти на нашем сайте, воспользовавшись алфавитным указателем вверху страницы.


 
Ошибка в тексте? Выделите ошибку и нажмите Ctrl+Enter