Dm         Am   Gm         Dm    Dsus2 A7
Моя маленькая радость, не оставляй меня с тоской
Dm        Am Gm         Am
Моя хрупкая вера, не предавай меня
Gm         B
Я буду делать все, что захочешь
Am                Ab E
Я могу быть сильным или злым
Am         B   A7   Dm
Но то, что ты просишь, это выше
 
Проигрыш:

1 гитара:

     Dm C7     F    C7
E||---|-5-8-8-6-6-5-|-5----8-8-6-6-5-|
H||-8-|-------------|---11-----------|

   Dm C7      F   A7 Dm C7     F    C7     Dm C7
E||-5-5-3-5----6-|-5-6-5-|-5-8-8-6-6-5-|-5----8-8-6-6-5-|-5-5-3-5-6-|
H||---------10---|-------|-------------|---11-----------|-----------|

   F A7
E||-5-|
H||---|

2 гитара:

     Dm C7     F   C7
E||---|-1-5-5-3-3-1-|-1---5-5-3-3-1-|
H||-5-|-------------|---8-----------|

   Dm C7     F   A7 Dm C7     F   C7     Dm C7
E||-1-1-0-1---3-|-1-3-1-|-1-5-5-3-3-1-|-1---5-5-3-3-1-|-1-1-0-1-3-|
H||---------6---|-------|-------------|---8-----------|-----------|

   F A7
E||-1-|
H||---|

Я могу быть иконой или просто посмешищем
Я могу просить милостыню
Я могу не жрать целый день
Я живу от двух до пяти ночи и не жалею
Но то, что ты просишь, это выше

Проигрыш

Я могу быть свободным, я умею чувствовать звук
Я могу умирать
И умею рождаться другим
И если ты спросишь, то я честно скажу, что не верю
Но то, что ты просишь, это выше

Проигрыш

Я согласен на аутодафе, я согласен раздать себя
По кусочкам и жилам
Так поставь за меня свечу
И если ты так хочешь, то я буду горбатым шутом
Но то, что ты просишь, это выше


Текст, аккорды и табулатура для песни "Вера", исполняет "Чиж".
Используемые в песне аккорды можно найти в разделе Как брать аккорды. Аккорды для шестиструнной гитары. Другие песни можно найти на нашем сайте, воспользовавшись алфавитным указателем вверху страницы.


Слушать онлайн Сен-Симилья


Разные Люди и Чиж & CoСен-Симилья на Яндекс.Музыке


 
Ошибка в тексте? Выделите ошибку и нажмите Ctrl+Enter