Перекресток  (блюз)
 
 1|---------------5==-|-4/5------------------|---------------5---
 2|-----5-6-5-6-8-----|-----8----------------|-----5-6-5-6-8-----
 3|---7---------------|-------5/6------------|---7---------------
 4|-7-----------------|-----------7====------|-7-----------------
 
 1|-7/8-8-8-7-6-5====-|-7/8-5----------------|-------------------]
 2|-------------------|-------6--------------|7/8-6-9/10-9-8-5/6-]
 3|-------------------|---------7-6-5--------|-----7------------7]
 4|-------------------|---------------7/8===-|-------------------]
 
 1|---------------5---|-4/5------------------|---------------5---
 2|-----5-6-5-6-8-----|-----8----------------|-----5-6-5-6-8-----
 3|---7---------------|-------5/6------------|---7---------------
 4|-7-----------------|-----------7----------|-7-----------------
 
 
 1|-7/8-8-8-7-6-5-----|-5-4-5-6-7-8-9-10-----|----------6/8-7-6--
 2|-------------------|------------------10--|9/10-9-10----------
 3|-------------------|----------------------|-------------------
 4|-------------------|----------------------|-------------------
 
 1|-8/9/10-8----------|----------------------|-------------------]
 2|----------11-10----|-8/9/10-8----8--------|-6/7/8-6-----------]
 3|-------------------|----------10----------|---------5/6-7-----]
 4|-------------------|----------------------|-------------------]
 
 1|-------------------|----------------------|-------------------
 2|-------------------|---5-6-8-5h6-h6-------|---------5-6-8-----
 3|-6/7-7-5-7=========|-7--------------7-----|-6/7-7-7-----------
 4|-------------------|----------------------|-------------------
 
 1|---------5-6-5-----|5-4-5-6-7-8-9-10-----|----------6/8-8-7-6-
 2|-7/8-8-8-----------|-----------------10--|9/10-9-10-----------
 3|-------------------|---------------------|--------------------
 4|-------------------|---------------------|--------------------
 
 1|-------------------]-9/10-----------------|-------------------
 2|7/8-6-9/10-9-8-5/6-]-----10-8--8-10=====--|-9/10-8----8=======
 3|-----7------------7]---------10-----------|--------10---------
 4|-------------------]----------------------|-------------------
 
 1|-------------------|-9/10-----------------|--------8-8-8-7-6-5
 2|-7/8-6-------------|-----10-8--8-10=====--|-10-9-10-----------
 3|-------5/6-7====---|---------10-----------|-------------------
 4|-------------------|----------------------|-------------------
 
 1|5-4-5-6-7-8-9-10---|-----------6/8-7-6----|
 2|-----------------10|-9/10-9-10------------|
 3|-------------------|----------------------|
 4|-------------------|----------------------|
 
 1|-8/9/10-8----------|----------------------|-------------------]
 2|----------11-10----|-8/9/10-8----8--------|-6/7/8-6-----------]
 3|-------------------|----------10----------|---------5/6-7-----]
 4|-------------------|----------------------|-------------------]
 
 1|---------------5==-|-4/5------------------|---------------5---
 2|-----5-6-5-6-8-----|-----8----------------|-----5-6-5-6-8-----
 3|---7---------------|-------5/6------------|---7---------------
 4|-7-----------------|-----------7====------|-7-----------------
 
 1|-7/8-8-8-7-6-5====-|-7/8-5----------------|---------------5---
 2|-------------------|-------6--------------|-7/8-6---6-7-8-----
 3|-------------------|---------7-6-5--------|-------7-----------
 4|-------------------|---------------7/8===-|-------------------
 
 1|-4-h54------------|----------------------|-------------------
 2|-------8-6-6-5/6---|----------------------|----7/8-8-6--------
 3|----------7------7-|--7-6-5=====----------|-4/5--------7------
 4|-------------------|----------------------|-------------------
 
 1|-------------5-----|-4-h54---------------|-------------------]
 2|-----5-6-7-8-------|-------8-6-6-5/6------|-------------------]
 3|---7---------------|----------7------7----|-5-6-7=======------]
 4|-7-----------------|----------------------|-------------------]
 
        (S=43, V=21, 08)
 
  Вступление: Dm|A7|Dm|B7|A7|Dm|D7|Gm|Dm|A7|Dm
  причем по возможности - на пятом ладу
 
 Dm                 A7             Dm
 Ты ушла рано утром, чуть позже шести.
                       B7                  A7
 Ты ушла рано утром, где то чуть позже шести.
            Dm   D7                Gm
 Бесшумно оделась, посмотрев на часы.
           Dm  A7                Dm
 На пачке LM`а   нацарапав прости.
 На подушке осталась пара длинных волос.
 На подушке осталась пара твоих длинных волос.
 И почти машинально (что ты скажешь, басист?)
 Я намотал их на палец (я хотел узнать имя) - получилось X.
 
 Кому жизнь - буги-вуги, а кому - полный бред.
 Кому жизнь - буги-вуги, ну а мне - полный бред.
 Недопитое пиво, недобитый комар,
 Недосмотренный сон, незаметный удар.
 
 Я искал тебя здесь и там, я думал - свихнусь.
 Я не нашел тебя ни здесь, и не там, я думал - свихнусь.
 О гитара, и струны, священный союз,
 Когда кидает любовь, начинается блюз.
 
   Solo
 
 Ты ушла рано утром, когда я еще спал.
 Ты ушла рано утром, когда я еще спал.
 Вечный мой перекресток, где минус, где плюс?
 Когда уходит любовь, остается блюз.
 Когда уходит любовь, остается блюз.
 
 
 
 
 
 



Текст, аккорды и табулатура для песни "Перекресток", исполняет "Чиж".
Используемые в песне аккорды можно найти в разделе Как брать аккорды. Аккорды для шестиструнной гитары. Другие песни можно найти на нашем сайте, воспользовавшись алфавитным указателем вверху страницы.


 
Ошибка в тексте? Выделите ошибку и нажмите Ctrl+Enter