e|-7-6-7--5-4-5--3-2-3--|-2-0---------3-0-------|------2-0--------------|
H|----------------------|------3-1-0-------0-1--|-2--------4------------|
G|----------------------|-----------------------|---3-------------------|
D|----------------------|-----------------------|-----------------------|
A|----------------------|-----------------------|-----------------------|
E|----------------------|-----------------------|-----------------------|
 
e|-7-6-7--5-4-5--3-2-3--|-2-0-----------3-0-----|-----------------------|
H|----------------------|-------3-1-0-------0---|--2---4---5------------|
G|----------------------|-----------------------|-----------------------|
D|----------------------|-----------------------|-----------------------|
A|----------------------|-----------------------|-----------------------|
E|----------------------|-----------------------|-----------------------|
 
 Em       H7    Em    C    Am6  H7    Em  H7
 Успокой меня глазами, успокой меня душой
      Em     D7     G          A7  D7    G
 И босыми встань ногами на сердечную мозоль
          Dm6      E7      Am      D7+3   D7    G
 Боль доставь мне наслажденья исцарапай спину мне
 E7    Am      F#m-5 Em C         Am      H7    C /H /B
 Мне явись как исцеленье, светом будь в моем окне
         F#7     H7    Em
 Светом будь в моем окне
 
 Обними меня глазами
 Обними меня душой
 Как пред строгими богами
 Я перед тобой одной
 Обними меня покрепче
 Да прижми к своей груди
 Мне так будет много легче
 Позабыть и перейти
 Позабыть и перейти
 
 Поцелуй меня глазами
 Поцелуй меня душой
 Оборвать все нити сразу
 Легче нежели по одной
 Стебель жизни очень тонок
 А не губи его шаля
 Где-то там не спит ребенок
 Так похожий на меня
 Так похожий на меня
 
   C#7  F#m - и т.д. на тон выше
 
 Успокой меня глазами
 Успокой меня душой
 И бысыми встань ногами
 На сердечную мозоль
 Для меня ты ангел божий
 Без тебя - такая муть
 Мне скажи ты мой хороший
 И еще чего-нибудь
 Мне скажи ты мой хороший
 И еще чего-нибудь
       H7 (вернулись в ми минор:)
 
 Проигрыш
 
 
 
 
 



Текст, аккорды и табулатура для песни "Глазами и душой", исполняет "Чиж".
Используемые в песне аккорды можно найти в разделе Как брать аккорды. Аккорды для шестиструнной гитары. Другие песни можно найти на нашем сайте, воспользовавшись алфавитным указателем вверху страницы.


 
Ошибка в тексте? Выделите ошибку и нажмите Ctrl+Enter