What UP DUDE!!
Song:Sink or Swim
Band:Chico Sci 
Tabbed by:Mathew Alibangbang a.k.a RoCk3r_GuItArIsT
Album:The Revenge of the Giant Robot

Drop D! Tunning!

Bass gtr
|----------------------------------------
|----------------------------------------
|----------------------------------------
|----------------------------------------
|-----11-11------------------------------
|11-11------11-11-5-5--------------------

Elec.gtr
|----------------------------------------
|----------------------------------------
|----------------------------------------
|--------5-------5--3--5b(6)-------------
|-3--5h6---6-5---------------------------
|----------------------------------------

|------------------------------------------------
|-8-8-8-6-6-6-4-4-4-3-3-3----3---1-----3-1---3---
|-8-8-8-7-7-7-5-5-5-3-3-3-0-0--3-0-3-3-0-0-0-3---
|------------------------------------------------
|------------------------------------------------
|------------------------------------------------


Let ring
|--------------------
|--------------------
|-5------------------
|-5------------------
|-3------------------
|--------------------

Verse Part 1
|---15-------------------15----------------
|------15-16-15--------------15-16-15--18--
|-17-------------12----17------------------
|------------------------------------------
|------------------------------------------
|------------------------------------------

|----15--------------------15------------
|-------15-16-15-------------------------
|-17--------------12-----17----17--------
|----------------------------------------
|----------------------------------------
|----------------------------------------

Pre Chorus
Elec.gtr
|----------------------------------------
|----------------------------------------
|----------------------------------------
|--------5-------5--3--5b(6)------------- 3x
|-3--5h6---6-5---------------------------
|----------------------------------------

|----------------------------------------
|----------------------------------------
|----------------------------------------
|---------5------------------------------
|-3--5h6----6-5b-------------------------
|----------------------------------------



Chorus (Strum Chords)
|----------------------------------------
|----------------------------------------
|----------------------------------------
|-10----5--------6-----------------------
|-10----5--------6-----------------------
|-10----5--------6-----------------------

Back To Verse Chorus

Bridge (The Best Part)
|----------------------------------------
|----------------------------------------
|----------------------------------------
|-3--6---5---1---------------------------
|-3--6---5---1---------------------------
|-3--6---5---1---------------------------

This is my first tab on this Band and i use my accoustic gtr my elect gtr was borrow.

E-mail:[email protected] 
if you hve corrections and any complain
or text me 09193774244

RoCk RuLeZ!!!!!


Текст, аккорды и табулатура для песни "Sink Or Swim", исполняет "Chicosci".
Используемые в песне аккорды можно найти в разделе Как брать аккорды. Аккорды для шестиструнной гитары. Другие песни можно найти на нашем сайте, воспользовавшись алфавитным указателем вверху страницы.


 
Ошибка в тексте? Выделите ошибку и нажмите Ctrl+Enter