song:paris
album:method of breathing
artist:chicosci
tabbed by:katrinne legazpi
info:kapag mali itong tab paki mura lang it2ng cel# 09193216020
tune guitar 1/2 fret down Eb Bb Gb Db Ab Eb
     
intro:(..)palm mute|1st part                    2nd part
Eb|-----------------------------------    -------------------|
Bb|-----------------------------------    -------------------|
Gb|------4-4-4-4-4-4-4-4-4-4-4-4-4-4--(2x)------4-4-4-4-4-4--|
Db|-----------------------------------    -------------------|
Ab|--0-0------------------------------    --0-0--------------|
Eb|--0-0------------------------------    --0-0--------------|
     . .                                    . .
guitar II I think pick slide then
(this riff also used in chorus)|
strum-A5-F#-Em(Intro 2nd part) v    (do this part in chorus only)
Eb|--5--2--------------------5--2--||----0~~--|
Bb|--5--2--------------------5--2--||----0~~--|
Gb|--6--3-----4-3-4---4-3-4--6--3--||----0~~--|
Db|--7--4--2--2-2-2-2-2-2-2--7--4--||----2~~--|
Ab|--7--4--2--2-2-2-2-2-2-2--7--4--||----2~~--|
Eb|--5--2--0--0-0-0-0-0-0-0--5--2--||----0~~--|

then...
stanza:guitar I
Eb|-----------------------------------    -------------------|
Bb|-----------------------------------    -------------------|
Gb|------4-4-4-4-4-4-4-4-4-4-4-4-4-4--(2x)------4-4-4-4-4-4--|(4x)
Db|-----------------------------------    -------------------|
Ab|--0-0------------------------------    --0-0--------------|
Eb|--0-0------------------------------    --0-0--------------|
     . .                                    . .
guitar II(kasabay ng guitar I)
Eb|-----------------------|
Bb|-----------------------|
Gb|-------------------7--|
Db|------9-9-9-9-6-6------|
Ab|--0-0------------------|
Eb|--0-0------------------|
     . .
chorus:same as 2nd part of intro
stanza
chorus

adlib:
Eb|-----------11-11-11-12p11--12-11----11-11-11-12p11--|
Bb|--12-12-12-----------------------12-----------------|
Gb|----------------------------------------------------|
Db|----------------------------------------------------|
Ab|----------------------------------------------------|
Eb|----------------------------------------------------|

guitar I E/ then

Eb|-----------------------------------    -----------------------------|
Bb|------9-9-7-7----------------------    -----------------------------|
Gb|--------------9-9-8-8-6-6-----6h8--(8x)--4-4-4-2-2-2-1-1-1----------|(4x)
Db|--------------------------9-9------    --------------------4-4-4-2--|
Ab|--0-0------------------------------    -----------------------------|
Eb|--0-0------------------------------    -----------------------------|

                                      end
tabbed by:Katrinne C.
         pag mali paki mura itong E-mail address na ginamit ko
         [email protected]


Текст, аккорды и табулатура для песни "Paris", исполняет "Chicosci".
Используемые в песне аккорды можно найти в разделе Как брать аккорды. Аккорды для шестиструнной гитары. Другие песни можно найти на нашем сайте, воспользовавшись алфавитным указателем вверху страницы.


 
Ошибка в тексте? Выделите ошибку и нажмите Ctrl+Enter