Song Title: Paris
By: Chicosci
Album: The Best of Chicosci
Tuning: Dropped D
Transcribed By: Choo Nerez
(If you have any comments or suggestions to the transcription,pls feel free to mail me
at this address, [email protected])

* A great song from one of our country's new blend of rockers...chicosci proves that they
deserve recognition with this one..i transcribed this using dropped d,may some use a
whole step down tuning, to C..but i prefer this way, its not that heavy but it still
sounds good to the tamed ear..u may also find that the song lacks the 2ng guitar, i didnt
transcribed it na lang kasi, fixed for 1 guitarist lang ung goal ko, so here it is...

Notation Legend:

*	= 	Pinch Harmonics
p	=	Pull-off
h	=	Hammer-on
b	=	Bend
r	=	Release
[]	=	Natural Harmonics
P.M.	=	Palm Mute
t	=	Tap
x	=	Dead String
tr	=	Tremelo Picking
tr~	=	Trill
~	=	Vibrato
s	=	Slide

Intro: (0:03)

     P.M.			     (2x)   P.M.          (4x)
e||-------------------------------------||------------------||
B||-------------------------------------||------------------||
G||-------------------------------------||------------------||
D||------8-8-8-8--8-8-8-8--8-8-8-8--8-8-||------8-8-8-8--88-||
A||-------------------------------------||------------------||
D||--6-6--------------------------------||--6-6-------------||

					    P.M - |
e||----------------------------------------------------------|
B||----------------------------------------------------------|
G||--8---5---3---3-3-3-3--1-1-1-1--3-3-3-3----------3-3-3-3--|
D||--8---5---3------------------------------1-1-1-1----------|
A||--6---3---1-----------------------------------------------|
D||--6---3---1-----------------------------------------------|

e|-------------------|---------|
B|-------------------|---------|
G|--1-1-1-1--3-3-3-3-|--8---5--|
D|-------------------|--8---5--|
A|-------------------|--6---3--|
D|-------------------|--6---3--|

Verse: (0:30)

     P.M.			     (3x)   P.M.          (2x)
e||-------------------------------------||------------------||
B||-------------------------------------||------------------||
G||-------------------------------------||------------------||
D||------8-8-8-8--8-8-8-8--8-8-8-8--8-8-||------8-8-8-8--88-||
A||-------------------------------------||------------------||
D||--6-6--------------------------------||--6-6-------------||

Chorus: (0:41)

					    P.M - |
e||----------------------------------------------------------|
B||----------------------------------------------------------|
G||--8---5---3---3-3-3-3--1-1-1-1--3-3-3-3----------3-3-3-3--|
D||--8---5---3------------------------------1-1-1-1----------|
A||--6---3---1-----------------------------------------------|
D||--6---3---1-----------------------------------------------|

e|-------------------|-------------|
B|-------------------|-------------|
G|--1-1-1-1--3-3-3-3-|--8---5---3--|
D|-------------------|--8---5---3--|
A|-------------------|--6---3---1--|
D|-------------------|--6---3---1--|

Verse: (1:03)

     P.M.			     (2x)   P.M.          (4x)
e||-------------------------------------||------------------||
B||-------------------------------------||------------------||
G||-------------------------------------||------------------||
D||------8-8-8-8--8-8-8-8--8-8-8-8--8-8-||------8-8-8-8--88-||
A||-------------------------------------||------------------||
D||--6-6--------------------------------||--6-6-------------||

     P.M.			     (2x)   P.M.          (4x)
e||-------------------------------------||------------------||
B||-------------------------------------||------------------||
G||-------------------------------------||------------------||
D||------8-8-8-8--8-8-8-8--8-8-8-8--8-8-||------8-8-8-8--88-||
A||-------------------------------------||------------------||
D||--6-6--------------------------------||--6-6-------------||

Chorus: (1:25)

					    P.M - |
e||----------------------------------------------------------|
B||----------------------------------------------------------|
G||--8---5---3---3-3-3-3--1-1-1-1--3-3-3-3----------3-3-3-3--|
D||--8---5---3------------------------------1-1-1-1----------|
A||--6---3---1-----------------------------------------------|
D||--6---3---1-----------------------------------------------|

e|-------------------|
B|-------------------|
G|--1-1-1-1--3-3-3-3-|
D|-------------------|
A|-------------------|
D|-------------------|

e||----------------------------------------------------------|
B||----------------------------------------------------------|
G||--8---5---3---3-3-3-3--1-1-1-1--3-3-3-3----------3-3-3-3--|
D||--8---5---3------------------------------1-1-1-1----------|
A||--6---3---1-----------------------------------------------|
D||--6---3---1-----------------------------------------------|

e|-------------------|-------------|
B|-------------------|-------------|
G|--1-1-1-1--3-3-3-3-|--8---5---3--|
D|-------------------|--8---5---3--|
A|-------------------|--6---3---1--|
D|-------------------|--6---3---1--|

Solo: (1:58)
							    (4x)
e||-----------------------------------------------------------||
B||--11-11-11---15-15-15---16p15---11-11-11---15-15---16p15---||
G||-----------------------------------------------------------||
D||-----------------------------------------------------------||
A||-----------------------------------------------------------||
D||-----------------------------------------------------------||

      P.M.		      P.M.  (8x)
e||-------3-3-------------------------||
B||-----------6-6-4-4-3-3---------1h3-||
G||---0-0-----------------5-5-3-3-----||
D||-----------------------------------||
A||-----------------------------------||
D||-----------------------------------||

			      (4x)
e|------------------------------||
B|------------------------------||
G|------------------------------||
D|--8-8-8--6-6-6--5-5-5-3--1--3-||
A|------------------------------||
D|------------------------------||

Verse: (2:42)

     P.M.			     (8x)
e||-------------------------------------||
B||-------------------------------------||
G||-------------------------------------||
D||------8-8-8-8--8-8-8-8--8-8-8-8--8-8-||
A||-------------------------------------||
D||--6-6--------------------------------||

Chorus: (3:04)

					    P.M - |
e||----------------------------------------------------------|
B||----------------------------------------------------------|
G||--8---5---3---3-3-3-3--1-1-1-1--3-3-3-3----------3-3-3-3--|
D||--8---5---3------------------------------1-1-1-1----------|
A||--6---3---1-----------------------------------------------|
D||--6---3---1-----------------------------------------------|

e|-------------------|
B|-------------------|
G|--1-1-1-1--3-3-3-3-|
D|-------------------|
A|-------------------|
D|-------------------|

e||----------------------------------------------------------|
B||----------------------------------------------------------|
G||--8---5---3---3-3-3-3--1-1-1-1--3-3-3-3----------3-3-3-3--|
D||--8---5---3------------------------------1-1-1-1----------|
A||--6---3---1-----------------------------------------------|
D||--6---3---1-----------------------------------------------|

e|-------------------|
B|-------------------|
G|--1-1-1-1--3-3-3-3-|
D|-------------------|
A|-------------------|
D|-------------------|

Ending Riff: (3:26)

	      (2x)
e||-------------||----|
B||-------------||----|
G||--8---5---3--||--8-|
D||--8---5---3--||--8-|
A||--6---3---1--||--6-|
D||--6---3---1--||--6-|


Текст, аккорды и табулатура для песни "Paris", исполняет "Chicosci".
Используемые в песне аккорды можно найти в разделе Как брать аккорды. Аккорды для шестиструнной гитары. Другие песни можно найти на нашем сайте, воспользовавшись алфавитным указателем вверху страницы.


 
Ошибка в тексте? Выделите ошибку и нажмите Ctrl+Enter