Band:Cheeze(KEZO)
SONG:Paris
TABBED BY:Mathew Alibangbang a.k.a RoCk3r_GuItArIsT
E-mail me:[email protected] or text me 09193774244

TUNNING:DADGBE
Intro
|-----------------------------------|
|-----------------------------------|
|----3-3-3-3-3-3-3-3-3-3------------|
|1-1--------------------------------| 4 or 5x 
|1-1--------------------------------|
|1-1--------------------------------|

2nd Part of Intro(Chorus)Strum Chords
|-------------------------------------|
|-------------------------------------|
|-------------------3-2-3-----3-2-3---|
|6------3-------6---------6-----------|
|6------3-------6---------6-----------|
|6------3-------6---------6-----------|

|----------------------------------------|
|----4-4-4-4--2-6-6-6-6--2--4-4-4-4--2---|
|----3-3-3-3--1-5-5-5-5--1--3-3-3-3--1---|
|1-1-------------------------------------|
|1-1-------------------------------------|
|1-1-------------------------------------|

Chorus (Strum Chords)
|-------------------------------------|
|-------------------------------------|
|-------------------3-2-3-----3-2-3---|
|6------3-------6---------6-----------|
|6------3-------6---------6-----------|
|6------3-------6---------6-----------|

|---------|
|---------|
|---------|
|-8~------| Let it ring
|-8~------|
|-8~------|

Solo

|---------10-10-10--11-10---------|
|11-11-11-------------------------|
|---------------------------------| 6x
|---------------------------------|
|---------------------------------|
|---------------------------------|

|---------------------------------------|
|---------------------------------------|
|12-12--10-10--8-8--7-7--5-5--3-3--5h7--|
|---------------------------------------|
|---------------------------------------|
|---------------------------------------|


Another Part B4 Verse
|---------------------------------|
|---------------------------------|
|---------------------------------|
|1-1-1-1-1-1-1-1-1-1-1------------|
|1-1-1-1-1-1-1-1-1-1-1------------|
|1-1-1-1-1-1-1-1-1-1-1------------|

Outro
|--------------------------------------|
|--------------------------------------|
|--------------------------------------|
|6-----3-----6------3------6-----------|
|6-----3-----6------3------6-----------|
|6-----3-----6------3------6-----------|


I used Drop D to make the song easier,I know it's a Eb Down half step tunning 
so i suggest to use normal Drop D TUNNING,so they're you go,i hope u'll like it!
just email me if u have any corrections
RoCk_RuL3Z!!!!!!!


Текст, аккорды и табулатура для песни "Paris", исполняет "Chicosci".
Используемые в песне аккорды можно найти в разделе Как брать аккорды. Аккорды для шестиструнной гитары. Другие песни можно найти на нашем сайте, воспользовавшись алфавитным указателем вверху страницы.


 
Ошибка в тексте? Выделите ошибку и нажмите Ctrl+Enter