Song: Most Precious and Hopeless
Band: Chicosci
Album: Method of Breathing

Tabbed by: yerffej?
Email: [email protected]

Tune the guitar whole step down (DAFCGD), then dropped C

guitar 1
D------5---7---------5------------------------------------------------|
A------5---7-(5x)----5------------------------------------------------|
F---------------------------------------------------------------------|
C---------------------------------------------------------------------|
G---------------------------------------------------------------------|
C---------------------------------------------------------------------|
delay effect


chorus	guitar 1 & 2
D----------------------------------|----------------------------------|
A----------------------------------|----------------------------------|
F----------------------------------|----------------------------------|
C---00-33-7--333-55-11-------------|---00-33-7--333-55-11-------------|
G---00-33-7--333-55-11---(4x)------|---00-33-7--333-55-11-(4x)--------|
C---00-33-7--333-55-11-------------|---00-33-7--333-55-11-------------|


guitar 1
D------5---7---------5------------------------------------------------|
A------5---7-(5x)----5------------------------------------------------|
F---------------------------------------------------------------------|
C---------------------------------------------------------------------|
G---------------------------------------------------------------------|
C---------------------------------------------------------------------|
delay effect

chorus	guitar 1 & 2
D----------------------------------|----------------------------------|
A----------------------------------|----------------------------------|
F----------------------------------|----------------------------------|
C---00-33-7--333-55-11-------------|---00-33-7--333-55-11-------------|
G---00-33-7--333-55-11---(4x)------|---00-33-7--333-55-11-(4x)--------|
C---00-33-7--333-55-11-------------|---00-33-7--333-55-11-------------|


bridge	guitar 1 & 2
D----------------------------------|------------------------------|
A----------------------------------|------------------------------|
F----------------------------------|------------------------------|(3x)
C---00000000000000000---play-------|---xxxxxxxxxxxxxxxx-----------|
G---00000000000000000---many-------|---xxxxxxxxxxxxxxxx-----------|
C---00000000000000000---times------|---xxxxxxxxxxxxxxxx-----------|
Listen to the cd to figure out this part



D---------------------------------------------------------------------|
A---------------------------------------------------------------------|
F---------------------------------------------------------------------|
C---00000000000000000-play---0000-------------------------------------|
G---00000000000000000-many---0000—pause-------------------------------|
C---00000000000000000-times--0000-------------------------------------|

(scream)
guitar 1					guitar 2
D----------------------------------|----------------------------------|
A----------------------------------|---11-9-8—(16x)-------------------|
F----------------------------------|----------tremolo plucking--------|
C---8-7-6--------------------------|----------------------------------|
G---8-7-6-(16x)--------------------|----------------------------------|
C---8-7-6--------------------------|----------------------------------|


Chorus 	guitar 1 & 2
D----------------------------------|----------------------------------|
A----------------------------------|----------------------------------|
F----------------------------------|----------------------------------|
C---00-33-7--333-55-11-------------|---00-33-7--333-55-11-------------|
G---00-33-7--333-55-11---(4x)------|---00-33-7--333-55-11-(4x)--------|
C---00-33-7--333-55-11-------------|---00-33-7--333-55-11-------------|

repeat many times until fade
D------5---7----------------------------------------------------------|
A------5---7----------------------------------------------------------|
F---------------------------------------------------------------------|
C---------------------------------------------------------------------|
G---------------------------------------------------------------------|
C---------------------------------------------------------------------|
delay effect


i saw you behind the glass
a perfect temptation
sutured in your scene
there's one thing left
no need to be afraid
everything's safe

i can't have you breathing (you know you can't)
it's not so simple
if I can't have you breathing (you know you won't)
see me, come close, so close to the stars

you look so peaceful
beneath my table
behind the white wall
i can feel you
don't be afraid
be mine all your days

**end**


Текст, аккорды и табулатура для песни "Most Precious And Hopeless", исполняет "Chicosci".
Используемые в песне аккорды можно найти в разделе Как брать аккорды. Аккорды для шестиструнной гитары. Другие песни можно найти на нашем сайте, воспользовавшись алфавитным указателем вверху страницы.


 
Ошибка в тексте? Выделите ошибку и нажмите Ctrl+Enter