song:glass is broken
album:method of breathing
artist:chicosci
tabbed by:leander m.
legend:
 slide down
/ slide up
h hammer on
p pull off

Intro:(light dist and delay)
E|-------|
B|-------|
G|--10--|(slide from nowhere)
D|--10--|
A|---8--|
D|-------|

riff I:
E|------------------------|     |------------------------|
B|------------------------|     |------------------------|
G|--10--------------10--|(16x)|--10-------------------|
D|--10--------------10--|     |--10---------------10--|
A|---8--10-10--------8--|     |---8--10-10--------10--|
D|-------10-10-13-12------|     |-------10-10-13-12--10--|
          .  .                           .  .
stanza:[guitar I](strumming,just hear the song) strumming
E|------|------|------|------|------------------|
B|--13--|--11--|------|------|--------------13--|
G|--12--|--10--|--10--|--12--|--12-12-12-12-12--|(4x)
D|------|------|--10--|--12--|--12-12-12-12-12--|
A|------|------|------|------|------------------|
D|------|------|------|------|------------------|

[guitar I]strumming(I thing 6x each chordings)
E|------|------|------|------|------|
B|--13--|--16--|--11--|------|------|
G|--12--|--15--|--10--|--12--|--10--|
D|------|------|------|--12--|--10--|
A|------|------|------|------|------|
D|------|------|------|------|------|
[guitar II]
E|------------------------|------------------------|
B|------------------------|------------------------|
G|------------------------|------------------------|
D|--------12----12----12--|--------9----9----9-----|
A|--10-10----10----10-----|--12-12---12---12---12--|
D|------------------------|------------------------|
     .  .  .  .  .  .  .      .  . .  . .  . .  . 

refrain:
E|-------------------------|
B|-------------------------|
G|--10---------------10--|
D|--10---------------10--|
A|---8--10-10---------8--|
D|-------10-10-13-12-------|
          .  .
E|------------------------|-----|
B|------------------------|-----|
G|--10--------------10--|-----|(2x)
D|--10--------------10--|--5--|
A|---8--10-10--------8--|--5--|
D|-------10-10-13-12------|--5--|
          .  . 
riff II:strum(C5-D5-A)guitar I[I think this is chorus part)
E|-----|-----|-----|
B|-----|-----|-----|
G|-----|-----|-----|(4x) then repeat Riff I
D|--5--|--8--|--5--|
A|--3--|--6--|--5--|
D|--0--|--0--|--5--|

guitar II( If 2x is peformed by guitar I enter guit. II)
E|------------------------------------------|
B|------------10---8---8h9p8h9p8----8-------|
G|----7h8-7----------------------10---10-8--|
D|--7-------7----7---7----------------------|
A|------------------------------------------|
D|------------------------------------------|
   (stanza)
   (refrain)                                 (repeat w/out Pm)
E|-----------------     -----------------    -----------------
B|-----------------     ------4-4--------    ------4-4--------
G|-----------------(11x)--5-5-----5-3-5--(3x)--5-5-----5-3-5--(4x)
D|------1-1--------     -----------------    -----------------
A|--0-3-----0-1-3--     -----------------    -----------------
D|-----------------     -----------------    -----------------
    . . . . . . .         . . . . . . .        . . . .

guitar I:(strumming)
E|-----|-----|-----|
B|-----|-----|-----|
G|-----|-----|-----|
D|--5--|--8--|--5--|
A|--3--|--6--|--5--|
D|--0--|--0--|--5--|

guitar II:
E|------------------------------------------ ------------    ---------------
B|------------10---8---8h9p8h9p8----8------- --16p15-----    --16p15----18--
G|----7h8-7----------------------10---10-8-- --------15--(7x)--------15-----
D|--7-------7----7---7---------------------- ------------    ---------------
A|------------------------------------------ ------------    ---------------
D|------------------------------------------ ------------    --------------- 
strumming
------|
--16--|
--15--|                             end
------|
------|
------|

finalle:
E|---------------|
B|---------------|
G|---------------|
D|---------------|
A|----2---3---2--|
D|--0-2-0-3-0-2--|
    .   .   .

tabbed by:[email protected]      text/call09193216020


Текст, аккорды и табулатура для песни "Glass Is Broken", исполняет "Chicosci".
Используемые в песне аккорды можно найти в разделе Как брать аккорды. Аккорды для шестиструнной гитары. Другие песни можно найти на нашем сайте, воспользовавшись алфавитным указателем вверху страницы.


 
Ошибка в тексте? Выделите ошибку и нажмите Ctrl+Enter