A  G#
Луна
        F        E
Тихо и так тепло
    A  G#
Стена
          F         E
Гладкая, как стекло

A                         G#
Окна, двери, словно звери
     F           E
Голоса за стеной
 A                       G#
Тени, слезы, ласки, позы
        F        E
Маются под Луной


A  A7           D   G        C
      Иди же, иди...     Ближе
C7              E   E7
      Все впереди      Я вижу

Solo1 (2 раза):

e-6---------5-----------5-----------7-
B-----3-2-----3-2---2-3---------------
G-------------------------------------
D-------------------------------------
A---------------------------------7---
E-----------------------------7-------

Параллельно играется:
  A         G#          F           E

Луна
Падает в облака
Тела
Сливаются как вода

Шепот и пот, слезы и лед
Голоса за стеной
Пальцы, огни, снова одни
Тянутся под Луной

Иди же, иди
Ближе
Все впереди
Я вижу

Solo2:
e-5---/7-5-4-----------------------0---5---/7-5-4-----------------------------
B---------------------------------------------------------------6---10--12^^^-
G----------------9-7-6-6h7----------------------------9-7-6-6h7---------------
D--------------------------7---6----------------------------------------------
A-----------------------------------------------------------------------------
E-----------------------------------------------------------------------------

                           2 раза                                    
e-------------------------------------------------------17---19^^^-|-21^^^----
B-14-------14-------14----14-------14-------14----14-15------------|----------
G----14-14----14-14----14----13-13----13-13----13------------------|----------
D------------------------------------------------------------------|----------
A------------------------------------------------------------------|----------
E------------------------------------------------------------------|----------

Иди же, иди
Ближе
Все впереди

Иди же, иди
Ближе
Все впереди

Я вижу


Текст, аккорды и табулатура для песни "Луна", исполняет "Чичерина Юлия".
Используемые в песне аккорды можно найти в разделе Как брать аккорды. Аккорды для шестиструнной гитары. Другие песни можно найти на нашем сайте, воспользовавшись алфавитным указателем вверху страницы.


Слушать онлайн Луна


ЧичеринаЛуна на Яндекс.Музыке


 
Ошибка в тексте? Выделите ошибку и нажмите Ctrl+Enter