Вступление           

    D        G        A         A
  1|---2----|---3----|---0-----|--------|
  2|--3-3---|--3---3-|--2-2----|2/3--3/5|
  3|-2---2-2|-4-----4|-2---2---|--------|     x2    
  4|0-----0-|5-------|2-----0h2|--------|
  5|--------|--------|---------|--------|
  6|--------|--------|---------|--------|

  Куплет
    D        Hm       G        D
  1|22222222|22222222|33333333|22222220|
  2|33333333|33333333|33333333|33333333|
  3|--------|--------|--------|--------|      x2
  4|--------|--------|--------|--------|
  5|--------|--------|--------|--------|
  6|--------|--------|--------|--------|

  Припев
    D        F#       Hm       G
  1|---2----|---2----|---2----|---3----|          |
  2|--3---3-|--2---2-|--3---3-|--3---3-|          |
  3|-2-----2|-3-----3|-4-----4|-4-----4|          |
  4|0-------|4-------|4-------|5-------|          |
  5|--------|--------|--------|--------|          |
  6|--------|--------|--------|--------|          |
                                                  |    
                                                  | x2
    D        А        G        A                  |
  1|---2----|---5----|---3----|---5----|          |  
  2|--3---3-|--5---5-|--3---3-|--5---5-|          |
  3|-2-----2|-6-----6|-4-----4|-6-----6|          |
  4|0-------|7-------|5-------|7-------|          |
  5|--------|--------|--------|--------|          |
  6|--------|--------|--------|--------|          |

  Проигрыш после первого припева
    D        F#       G        A
  1|2--2----|2--2----|3--3----|-------|
  2|-3----3-|-2----2-|-3----3-|-------|
  3|--2----2|--3----3|--4----4|-------|
  4|--------|--------|--------|-------|
  5|--------|--------|--------|-------|
  6|--------|--------|--------|-------|

  Проигрыш после второго припева
    D       F#          G           A 
  1|--------|----5-------|---------|-------|
  2|--------|5-7---7-55--|---------|-------|
  3|--------|----------7h|9p7----7|-------|   +ВСТУПЛЕНИЕ
  4|-0-4p2p0-|----9----|-------|
  5|---------|---------|-------|
  6|---------|---------|-------|

  Проигрыш после третьего припева
    D        F#     Hm     G      
  1|--------|------|-----|3---3--|
  2|--------|/7-5-3|--3--|-------|
  3|--------|------|4---4|---4-33|
  4|-0-4p2p0|------|-----|-------|
  5|--------|------|-----|-------|
  6|--------|------|-----|-------|

    D     A           G             A
  1|-----|--------10---|----|
  2|---10|^(12)-10-10|^(12)-10--12|----|
  3|11-----|----|
  4|-------|----|
  5|-------|----|
  6|-------|----|

           ^(12)-подтяжка вверх на 1 тон,
                   т.е. до ноты 12 лада
                 

D                 Hm                G              D    
   У неба есть небо, у моря есть море. У ней никого.
   Цветные портреты и полки с кассетами, нет одного.

D       F#       Hm           G     
Белая   скатерть.   Разбитые блюдца.
D       A        G            A              D 
Девочка плачет.                   Девочки смеются.

   Весна тратуарами строит всех парами, слепит глаза.
   Она по обочине грустная, очень пустая ваза.
               
   У неба есть небо, у моря есть море. У ней потолок.
   Цветные портреты и полки с кассетами, и телефонный звонок.
    
    (в третьем куплете гитара играет "целыми", т.е. НЕ боем)


Текст, аккорды и табулатура для песни "Блюдца", исполняет "Чичерина Юлия".
Используемые в песне аккорды можно найти в разделе Как брать аккорды. Аккорды для шестиструнной гитары. Другие песни можно найти на нашем сайте, воспользовавшись алфавитным указателем вверху страницы.


Слушать онлайн Блюдца


ЧичеринаБлюдца на Яндекс.Музыке


 
Ошибка в тексте? Выделите ошибку и нажмите Ctrl+Enter