Intro

Horn Section

Verse 1:
A5          G5               F#5  F5  E5
    Waiting for the break of day
A5            G5               F#5  F5  E5
    Searching for something to say
A5            G5                F#5  F5  E5
    Flashing lights against the sky
A5         G5              F#5  F5  E5
    Giving up, I close my eyes

Chorus 1:
F5                                C5 
    Sitting cross-legged on the floor
G5             F5
    25 or 6 to 4

Horn Section

Verse 2:
A5           G5           F#5  F5  E5
    Staring blindly into space
A5          G5               F#5  F5  E5
    Getting up to splash my face
A5           G5            F#5  F5  E5
    Wanting just to stay awake
A5            G5              F#5  F5  E5
    Wondering how much I can take

Chorus 2:
F5                           C5
    Should I try to do some more
G5             F5
    25 or 6 to 4

Solo

Horn Section

Verse 3:
A5           G5              F#5  F5  E5
    Feeling like I ought to sleep
A5            G5             F#5  F5  E5
    Spinning room is sinking deep
A5            G5               F#5  F5  E5
    Searching for something to say
A5          G5               F#5  F5  E5
    Waiting for the break of day

Chorus 3:
F5             C5
    25 or 6 to 4
G5             F5
    25 or 6 to 4

Ending Part 1

Ending Part 2

Intro, Horn Section, Solo, Ending Part 1:

       A5             G5              F#5             F5      E5
G |2-2-2-2-2-------0-0-0-0-0---------------------------------------|
D |2-2-2-2-2-------0-0-0-0-0-------4-4-4-4-4-------3-3-3-3-2-2-2-2-|
A |--------------------------------4-4-4-4-4-------3-3-3-3-2-2-2-2-|
E |----------------------------------------------------------------|

Verses:

       A5             G5              F#5             F5      E5
G |2-2---2-2-------0-0---0-0---------------------------------------|
D |2-2---2-2-------0-0---0-0-------4-4---4-4-------3-3---3-2-2---2-|
A |--------------------------------4-4---4-4-------3-3---3-2-2---2-|
E |----------------------------------------------------------------|

Choruses:

              F5                               C5
G |--------------------------------5-------5-------5-------5---5---
D |3-------3-------3-------3---3---5-------5-------5-------5---5---
A |3-------3-------3-------3---3-----------------------------------
E |----------------------------------------------------------------

              G5                               F5
G  0-------0-------0-------0---0-----------------------------------|
D  0-------0-------0-------0---0---3-------3-------3---3---3---3---|
A  --------------------------------3-------3-------3---3---3---3---|
E  ----------------------------------------------------------------|

Ending Part 2:

G |------------------------------------------------------------------------|
D |2-2-2-2-2-------0-0-0-0-0-----------------------------------------------|
A |--------------------------------3-3-3-3-3-------2-2-2-2-1-1-1-1-0-------|
E |------------------------------------------------------------------------|

Tip: Use a heavy pick to play this. CHICAGO RULES ALL!!!!!!!!!


Текст, аккорды и табулатура для песни "25 Or 6 To 4", исполняет "Chicago".
Используемые в песне аккорды можно найти в разделе Как брать аккорды. Аккорды для шестиструнной гитары. Другие песни можно найти на нашем сайте, воспользовавшись алфавитным указателем вверху страницы.


Слушать онлайн 25 Or 6 To 4


Chicago25 Or 6 To 4 на Яндекс.Музыке


 
Ошибка в тексте? Выделите ошибку и нажмите Ctrl+Enter