Band:Chevelle
Song:The Red
 = slide

(0:10)
Verse
E |-----------------------------------|  Play this 3 times.
B |-----------------------------------|
F#|7-7-9-7------------7-7-9-7---------|
C#|-------0-3-3-0-3-0----------8-8-8-8|



|-----------------------------|  
|-----------------------------|
|7-7-9-7-------------7-7-9-7--|
|--------0--3-3-0-3-0------0-8|


Chorus  (0:31)

|---------------------------|
|---------------------------|
|---------------------------|
|0-0-0-0-0-0-0-3-3-3-3-3-3-0|


|---------------------------------------------|
|---------------------------------------------|
|5-5-5-5-5-5-5-5-5-5-5-5-5-5-5-5--------------|
|--------------------------------0-0-0-0-0-0|


|-----------------------------------------------------|
|-----------------------------------------------------|
|--------------5-5-5-5-5-5-5-5-5-0-2-2-2-2-2-2-2-2-2-2|
|3-3-3-3-3-3-0----------------------------------------|


|--------------------------------------|
|--------------------------------------|
|-7-7-9-7--------------7-7-9-7---------|
|----------0-3-3-0-3-0----------8-8-8-8|


Verse(1:02)
|--------------------------------------|      Play this 4 times
|--------------------------------------|
|7-7-9-7--------------7-7-9-7----------|
|---------0-3-3-0-3-0---------0-8-8-8-8|


Chorus(1:43)

|----------------------------|
|----------------------------|
|----------------------------|
|0-0-0-0-0-0-0-3-3-3-3-3-3-0-|


|--------------------------------------------------|
|--------------------------------------------------|
|5-5-5-5-5-5-5--5--5-5--5--5-5--5-5-5-------------|
|-------------------------------------0-0-0-0-0-0-0|


Inertlude(2:03)

|----------------------------------------|    Play this 3 times
|----------------------------------------|
|7-7-9-7--------------7-7-9-7------------|
|---------0-3-3-0-3-0----------0-8-8--8-8|


|---------------------------|
|---------------------------|
|0-0-0-0-0-0-0-3-3-3-3-3-3-0|
|---------------------------|
                                          Play these two lines twice.

|-----------------------------------------------|
|-----------------------------------------------|
|5-5-5-5-5-5-5-5-5-5-5-5-5-5-5-5---------------|
|---------------------------------0-0-0-00-0-0-0|

Bridge(3:05)

|--------------------------------------|      Play this 4 times.
|--------------------------------------|
|7-7-9-7--------------7-7-9-7----------|
|---------0-3-3-0-3-0---------0-8-8-8-8|


|-------------------|
|-------------------|
|-------------------|
|8-8--8-8--7-7--7-7-|


Outro(3:31)

|-------|
|-------|  Let this note ring out.
|-------|
|8------|


Текст, аккорды и табулатура для песни "The Red", исполняет "Chevelle".
Используемые в песне аккорды можно найти в разделе Как брать аккорды. Аккорды для шестиструнной гитары. Другие песни можно найти на нашем сайте, воспользовавшись алфавитным указателем вверху страницы.


 
Ошибка в тексте? Выделите ошибку и нажмите Ctrl+Enter