This is my first tab ...I know its not perfect but it's close...

Tuning: Drop D
Intro- W/ Distortion
E-------------------------------------------------------------------------------
B-------------------------------------------------------------------------------
G-------------------------------------------------------------------------------
D-------------------------------------------------------------------------------
A-------------------------------------------------------------------------------
D---99-99-99-99-9h10p9-99-99-99-99-xxxx-----X5----------------------------------

Riff 1 (clean)
E-------------------------------------------------------------------------------
B-------------------------------------------------------------------------------
G-7-66-7-66-7-66-7-66-6h77-----------X3-----------------------------------------
D-------------------------------------------------------------------------------
A-------------------------------------------------------------------------------
D-------------------------------------------------------------------------------

Verse (clean)
E----------------------------------------------------------------------------
B----------------------------------------------------------------------------
G----------------------------------------------------------------------------
D-5-4------5---4------------5---4---------5-4-------------x4-----------------
A------2------------2--------------2------------2----------------------------
D----------------------------------------------------------------------------
Pre Chorus (distortion)
E-------------------------------------------------------------------------
B-------------------------------------------------------------------------
G-------------------------------------------------------------------------
D-99-99-99-9--10xxxxxxxxx----99-99-99-99-9-10xxxxxxxx---------------------
A-99-99-99-9--10xxxxxxxxx----99-99-99-99-9-10xxxxxxxx---------------------
D-99-99-99-9--10xxxxxxxxx----99-99-99-99-9-10xxxxxxxx-----x2--------------

E----------------------------------------------------------------
B----------------------------------------------------------------
G----------------------------------------------------------------
D-99-9-7-99-9-5-04h5p4-------------------------------------------
A-99-9-7-99-9-5-04h5p4-------------------------------------------
D-99-9-7-99-9-5-04h5p4-----------x3------------------------------

E----------------]
B----------------]
G----------------]
D--7-7-7---------]
A--7-7-7---------]
D--7-7-7---------]


That basically the whole song...just figure out how on ur own how many times
u play each part and when you do.


Текст, аккорды и табулатура для песни "Grab Thy Hand", исполняет "Chevelle".
Используемые в песне аккорды можно найти в разделе Как брать аккорды. Аккорды для шестиструнной гитары. Другие песни можно найти на нашем сайте, воспользовавшись алфавитным указателем вверху страницы.


 
Ошибка в тексте? Выделите ошибку и нажмите Ctrl+Enter