chevelle

-closure-
tunning:b-f#-b-e-g#-c# low to high
tabed by [email protected]
 
This song rules! Enjoy!
The bass is simple but if you need it email me.

intro repeat x 2 /verse repeat x 4
|-----------------------------------------------------------|
|-----------------------------------------------------------|
|-7--x-x-x-x-10--x-x-x-x-9--x-x-x-x-10--910-5-5------------|
|-----------------------------------------------------------|
|-5--x-x-x-x-8---x-x-x-x-7--x-x-x-x-8---78--3-3------------|
|-0--0-0-0-0-0---0-0-0-0-0--0-0-0-0-0---0-0--0-0------------|

pre chorus  repeat x3
|-----------------------------------------------------------|
|-----------------------------------------------------------|
|-----------------------------------------------------------|
|-3--3-5-3-0-3--3-5-3-0-5--5-7-5-0-5--5-7-5-0---------------|
|-3--3-5-3-0-3--3-5-3-0-5--5-7-5-0-5--5-7-5-0---------------|
|-3--3-5-3-0-3--3-5-3-0-5--5-7-5-0-5--5-7-5-0---------------|

chorus   repeat x 8                                         x2
|---------------------------------------------|--------------|
|-6--6-6-6-6-6--6-6-6-6-6--6-6-6-6-6--6-6-6-6-|--------------|
|-5--5-5-5-5-5--5-5-5-5-5--5-5-5-5-5--5-5-5-5-|--------------|
|-3--3-3-3-3-3--3-3-3-3-3--3-3-3-3-3--3-3-3-3-|-3-0--0--0--0-|
|---------------------------------------------|-3-0--0--0--0-|
|---------------------------------------------|-3-0--0--0--0-|

verse 

distortion from here on out

pre chrous
chorus

3rd verse  repeat x 2
|-----------------------------------------------------------|
|-----------------------------------------------------------|
|-7--x-x-x-x-10--x-x-x-x-9--x-x-x-x-10--910-5-5------------|
|-----------------------------------------------------------|
|-5--x-x-x-x-8---x-x-x-x-7--x-x-x-x-8---78--3-3------------|
|-0--0-0-0-0-0---0-0-0-0-0--0-0-0-0-0---0-0--0-0------------|

|-----------------------------------------------------------|
|-----------------------------------------------------------|
|-7--x-x-x-x-10--x-x-x-x-9--x-x-x-x-1012-12-12-12-12-12----|
|-----------------------------------------------------------|
|-5--x-x-x-x-8---x-x-x-x-7--x-x-x-x-8-10-10-10-10-10-10----|
|-0--0-0-0-0-0---0-0-0-0-0--0-0-0-0-0-----0--0--0--0--0-----|

pre chorus

3rdchorus  repeat x 4                                       x2
|---------------------------------------------|--------------|
|-6--6-6-6-6-6--6-6-6-6-6--6-6-6-6-6--6-6-6-6-|--------------|
|-5--5-5-5-5-5--5-5-5-5-5--5-5-5-5-5--5-5-5-5-|--------------|
|-3--3-3-3-3-3--3-3-3-3-3--3-3-3-3-3--3-3-3-3-|-3-0--0--0--0-|
|---------------------------------------------|-3-0--0--0--0-|
|---------------------------------------------|-3-0--0--0--0-|

 repeat x 4                                                  x2
|---------------------------------------------|--------------|
|-6--6-6-6-6-6--6-6-6-6-6--6-6-6-6-6--6-6-6-6-|--------------|
|-5--5-5-5-5-5--5-5-5-5-5--5-5-5-5-5--5-5-5-5-|--------------|
|-3--3-3-3-3-3--3-3-3-3-3--3-3-3-3-3--3-3-3-3-|-3-0--0--0--0-|
|---------------------------------------------|-3-0--0--0--0-|
|---------------------------------------------|-3-0--0--0--0-|

outro  repeat x 5
|-----------------------------------------------------------|
|-----------------------------------------------------------|
|-10-10-10-9-9-9-7------------------------------------------|
|------------------7--7--7-7-5--5--5-5-0--0-----------------|
|-8--8--8--7-7-7-5-7--7--7-7-5--5--5-5-0--0-----------------|
|------------------7--7--7-7-5--5--5-5-0--0-----------------|
  x1
|-----------------------------------------------------------|
|-----------------------------------------------------------|
|-10-10-10-9-9-9-7------------------------------------------|
|------------------7--7--7-7-5--5--5-5-0-0-0-0--------------|
|-8--8--8--7-7-7-5-7--7--7-7-5--5--5-5-0-0-0-0--------------|
|------------------7--7--7-7-5--5--5-5-0-0-0-0--------------|
pm                                     . . . 

end


Текст, аккорды и табулатура для песни "Closure", исполняет "Chevelle".
Используемые в песне аккорды можно найти в разделе Как брать аккорды. Аккорды для шестиструнной гитары. Другие песни можно найти на нашем сайте, воспользовавшись алфавитным указателем вверху страницы.


 
Ошибка в тексте? Выделите ошибку и нажмите Ctrl+Enter