Музыка - Анатолий Крупнов
Слова - Шарль Бодлер
E||--------------------|--------------------|
B||--------------------|--------------------|
G||--------------------|--------------------|
D||--------------------|--------------------|
A||--------------------|--------------------|
E||-----55555555-------|-----55555555-------|
Riff A - 4 раза:
E||--------------------|--------------------|--------------------|--------------------|
B||--------------------|--------------------|--------------------|--------------------|
G||-----------5--------|--(5)--8-7--8-7---5-|--------------------|--------------------|
D||--7--------5--------|--(5)--8-7--8-7---5-|--7--------5--------|--(5)------5-6------|
A||--7--------3--------|--(3)--6-5--6-5---3-|--7--------5--------|--(5)------5-6------|
E||--5-----------------|--------------------|--5--------3--------|--(3)------3-4------|

E||--------------------|--------------------|--------------------|--------------------|
B||--------------------|--------------------|--------------------|--------------------|
G||--------------------|--------------------|-----------5--------|--(5)--8-7--8-7---5-|
D||-----------7--------|--------------------|--7--------5--------|--(5)--8-7--8-7---5-|
A||-----------7--------|--------------------|--7--------3--------|--(3)--6-5--6-5---3-|
E||-----------5--------|--------------------|--5-----------------|--------------------|
На странном призраке ни признака            наряда,                      одна      кар-
E||--------------------|--------------------|--------------------|--------------------|
B||--------------------|--------------------|--------------------|--------------------|
G||--------------------|--------------------|-----------5--------|--(5)--8-7--8-7---5-|
D||-----------7--------|--------------------|--7--------5--------|--(5)--8-7--8-7---5-|
A||-----------7--------|--------------------|--7--------3--------|--(3)--6-5--6-5---3-|
E||-----------5--------|--------------------|--5-----------------|--------------------|
             тонная     корона      с    маскарада,                      котора-
E||--------------------|--------------------|--------------------|--------------------|
B||--------------------|--------------------|--------------------|--------------------|
G||--6----6------------|--(6)---------------|--6----6------------|--(6)---------------|
D||--6----6------------|--(6)---------------|--6----6------------|--(6)---------------|
A||--4-44-4------------|--(4)----5-4-2------|--4-44-4------------|--(4)----5-4-2------|
E||--------------------|--------------------|--------------------|--------------------|
    я с его               костлявым лбом   слита.                         Загнал ко-
E||--------------------|--------------------|--------------------|--------------------|
B||--------------------|--------------------|--------------------|--------------------|
G||--8----8------------|--(8)---------------|--8-----8-----------|--(8)-----10---11---|
D||--8----8------------|--(8)---------------|--8-----8-----------|--(8)-----10---11---|
A||--6-66-6------------|--(6)----7-6-4------|--6-666-6-----------|--(6)-----8----9----|
E||--------------------|--------------------|--------------------|--------------------|
    нягу    он    без    шпор   и без хлыста
Riff A - 2 раза

Riff B - 4 раза:
E||--------------------|
B||--------------------|
G||--------------------|
D||--------------------|
A||-5-55-5-55-5-55-7-33|
E||--------------------|

E||--------------------|--------------------|--------------------|--------------------|
B||--------------------|--------------------|--------------------|--------------------|
G||--------------------|--------------------|--------------------|--------------------|
D||--------------------|--------------------|--------------------|--------------------|
A||-5-55-5-55-5-55-7-33|-5-55-5-55-5-55-7-33|-5-55-5-55-5-55-7-33|-5-55-5-55-5-55-7-33|
E||--------------------|--------------------|--------------------|--------------------|
И призрачный Конь Блед под призрачною тучей роняет пену с губ, как в приступе падучей
E||--------------------|--------------------|--------------------|--------------------|
B||--------------------|--------------------|--------------------|--------------------|
G||--------------------|--------------------|--------------------|--------------------|
D||--------------------|--------------------|--------------------|--------------------|
A||-5-55-5-55-5-55-7-33|-5-55-5-55-5-55-7-33|-5-55-5-55-5-55-7-33|-5-55-5-55-5-55-7-33|
E||--------------------|--------------------|--------------------|--------------------|
Две тени врезались, в Пространство. Путь открыт. И вечность искрами летит из-под копыт.
Riff C - 2 раза:
E||--------------------|--------------------|--------------------|--------------------|
B||--------------------|--------------------|--------------------|--------------------|
G||-------5-------7-8--|-------5------------|-------5-------7-8--|-------5------------|
D||-------5-------7-8--|-------5------------|-------5-------7-8--|-------5--5--6--7---|
A||-------3-------5-6--|-------3------------|-------3-------5-6--|-------3--5--6--7---|
E||--555-----555-------|--555-----555555----|--555-----555-------|--555-----3--4--5---|

E||--------------------|--------------------|--------------------|--------------------|
B||--------------------|--------------------|--------------------|--------------------|
G||--------------------|--------------------|-------5-------7-8--|-------5------------|
D||--------------------|--------------------|-------5-------7-8--|-------5--5--6--7---|
A||--------------------|--------------------|-------3-------5-6--|-------3--5--6--7---|
E||----555555555555----|----555555555555----|--555-----555-------|--555-----3--4--5---|
 
   Он поднял над толпой        пылающую      шпагу
E||--------------------|--------------------|--------------------|--------------------|
B||--------------------|--------------------|--------------------|--------------------|
G||--------------------|--------------------|-------5-------7-8--|-------5------------|
D||--------------------|--------------------|-------5-------7-8--|-------5--5--6--7---|
A||--------------------|--------------------|-------3-------5-6--|-------3--5--6--7---|
E||----555555555555----|----555555555555----|--555-----555-------|--555-----3--4--5---|
И гонит по телам                поверженным конягу.
E||--------------------|--------------------|--------------------|--------------------|
B||--------------------|--------------------|--------------------|--------------------|
G||--------------------|--------------------|-------5-------7-8--|-------5------------|
D||--------------------|--------------------|-------5-------7-8--|-------5--5--6--7---|
A||--------------------|--------------------|-------3-------5-6--|-------3--5--6--7---|
E||----555555555555----|----555555555555----|--555-----555-------|--555-----3--4--5---|
Как домовитый князь, свершает он объезд
E||--------------------|--------------------|--------------------|--------------------|
B||--------------------|--------------------|--------------------|--------------------|
G||--------------------|--------------------|-------5-------7-8--|-------5------------|
D||--------------------|--------------------|-------5-------7-8--|-------5--5--6--7---|
A||--------------------|--------------------|-------3-------5-6--|-------3--5--6--7---|
E||----555555555555----|----555555555555----|--555-----555-------|--555-----3--4--5---|
Погостов без оград, рассыпанных окрест.
E||--------------------|--------------------|--------------------|--------------------|
B||--------------------|--------------------|--------------------|--------------------|
G||--8-------7---------|--5-----------------|--8-------7---------|--5-----------------|
D||--8-------7---------|--5-----7-----5-----|--8-------7---------|--5-----7-----5-----|
A||--6-------5---------|--3-----7-----5-----|--6-------5---------|--3-----7-----5-----|
E||--------------------|--------5-----3-----|--------------------|--------5-----3-----|
Почиют      там                        при свете солнц         свинцовых
E||--------------------|--------------------|--------------------|--------------------|
B||--------------------|--------------------|--------------------|--------------------|
G||--8-------7---------|--5-----------------|--8-------7---------|--5-----------------|
D||--8-------7---------|--5-----7-----5-----|--8-------7---------|--5-----7-----5-----|
A||--6-------5---------|--3-----7-----5-----|--6-------5---------|--3-----7-----5-----|
E||--------------------|--------5-----3-----|--------------------|--------5-----3-----|
Народы всех           времен -           и сгинувших             и новых.


Текст, аккорды и табулатура для песни "Фантастическая Гравюра", исполняет "Черный Обелиск".
Используемые в песне аккорды можно найти в разделе Как брать аккорды. Аккорды для шестиструнной гитары. Другие песни можно найти на нашем сайте, воспользовавшись алфавитным указателем вверху страницы.


 
Ошибка в тексте? Выделите ошибку и нажмите Ctrl+Enter