riff1
E------------------------------------------------------
B------------------------------------------------------
G------------------------------------------------------
D---2---2---------------------2---2--------------------
A---2---2---------------------2---2--------------------
E---0---0---5-3-2-3--5-3-2-3--0---0---5-3-2-3--5-3-2-3-

E------------------------------------------------------
B------------------------------------------------------
G------------------------------------------------------
D---2---2---------------------2---2------------2-2-----
A---2---2---------------------2---2------------2-2-----
E---0---0---5-3-2-3--5-3-2-3--0---0---5-3-2-3--0-0-----

riff2
E-------------------------------------------
B-------------------------------------------
G-------------------------------------------
D---2---------4---------5---------4---------
A---2---------4---------5---------4---------
E---0--0-0-0--2--0-0-0--3--0-0-0--2--0-0-0--

E-------------------------------------------
B-------------------------------------------
G-------------------------------------------
D---2---------4---------5---------7---------
A---2---------4---------5---------7---------
E---0--0-0-0--2--0-0-0--3--0-0-0--5--0-0-0--


E-------------------------------------------
B-------------------------------------------
G---2---------4---------5---------4---------
D---2---------4---------5---------4---------
A---0--0-0-0--2--0-0-0--3--0-0-0--2--0-0-0--
E-------------------------------------------

E-------------------------------------------
B-------------------------------------------
G---2---------4---------5---------7---------
D---2---------4---------5---------7---------
A---0--0-0-0--2--0-0-0--3--0-0-0--5--0-0-0--
E-------------------------------------------

riff3
E-------------------------------------------
B-------------------------------------------
G-------------------------------------------
D---2---------4---------9---7---5---4-------  -> 2 раза
A---2---------4---------7---5---3---2-------
E---0--0-0-0--2--0-0-0----0---0---0---------

E------------------------                       E------------------
B------------------------                       B------------------
G------------------------                       G------------------
D---2-------2-------45--   D---2--2--2-2---2--
A---2-------2-------45--                       A---2--2--2-2---2--
E---0--0-0--0--0-0--23--                       E---0--0--0-0---0--


куплет (bass)
G----------------------------------------------------------------------
D------------------------------------0---2---3---2---0---2---3---5-----
A---0---2---3---2---0---2---3---5------0---0---0---0---0---0---0---0---
E-----0---0---0---0---0---0---0---0------------------------------------

          Аве Цезарь, друг сердечный
          Ну заходи давно заждались
          Нет не поздно, да конечно
          Не развязывай сандалей

          Брось ты эту табуретку
          Ей!!!принесите гостю кресло
          Он у нас бывает редко
          Так пускай понежит чресло


E---------------------------------
B---------------------------------
G---------------------------------
E---2-------4-------5-----4-------
A---2-------4-------5-----4-------
E---0-------2-------3-----2-------
     Тут у нас такие гости

E---------------------------------------
B---------------------------------------
G---------------------------------------
D----2-----4-----4-----7----------------
A----2-----4-----5-----7----------------
E----0-----2-----3-----5----------------
       Укрошение компаний


E-----------------------------
B-----------------------------
G----2--------4----5----4-----
D----2--------4----5----4-----
A----0--------2----3----2-----
E-----------------------------
    Что, не спится на погосте


E-----------------------------
B-----------------------------
G---2-------4----3----7-------
D---2-------4----3----7-------
A---0-------2----5----5-------
E-----------------------------
      Или плохо закопали

E--------------------------------------------
B--------------------------------------------
G--------------------------------------------
D-----2-------4------------5-------4---------
A-----2-------4------------5-------4---------
E--0--0--0-0--2--2-2-2--3--3--3-3--2--2-2-2--
     Или совесть беспокоит

E--------------------------------------------
B--------------------------------------------
G--------------------------------------------
D-----2-------4------------5-------7---------
A-----2-------4------------5-------7---------
E--0--0--0-0--2--2-2-2--3--3--3-3--5--5-5-5--
       Иль соседи кровопийцы

E--------------------------------------------
B--------------------------------------------
G-----2-------4------------5-------4---------
D-----2-------4------------5-------4---------
A--0--0--0-0--2--2-2-2--3--3--3-3--2--2-2-2--
E--------------------------------------------
       Или что-нибудь такое
E--------------------------------------------
B--------------------------------------------
G-----2-------4------------5-------7---------
D-----2-------4------------5-------7---------
A--0--0--0-0--2--2-2-2--3--3--3-3--5--5-5-5--
E--------------------------------------------
       Что забыли летописцы


Текст, аккорды и табулатура для песни "Цезарь", исполняет "Черный Обелиск".
Используемые в песне аккорды можно найти в разделе Как брать аккорды. Аккорды для шестиструнной гитары. Другие песни можно найти на нашем сайте, воспользовавшись алфавитным указателем вверху страницы.


 
Ошибка в тексте? Выделите ошибку и нажмите Ctrl+Enter