E|--------0------0------0-----0-----0------0------0-----0|
 B|------1------1------1-----1-----1------1------1-----1--|
 G|----2------2------2-----2-----2------2------2-----2----|     n раз
 D-----------------0--------------------------|
 A|-0---------------------------------3------0------0-----|
 E|-------3------2-----1----------------------------------|
 
 E|--------0------0------0-----0-----0------0--------------0------|
 B|------1------1------1-----1-----1------1-----1-0^1^0--0--------|
 G|----2-----2------2-----2-----2------2-----2---------------2----|
 D----------------0-----------------------------------|
 A|-0-------------------------------3------0----------------------|
 E|------3------2-----1-------------------------------------------|
 
 E|--------0------0------0-----0-----0------0---0-0-0-0-0--|
 B|------1------1------1-----1-----1------1-----1-1-1-1-1--|
 G|----2-----2------2-----2-----2------2-----2-------------|
 D----------------0----------------------------|
 A|-0-------------------------------3------0---------------|
 E|-------3------2-----1-----------------------------------|


Текст, аккорды и табулатура для песни "96+415", исполняет "Черный Обелиск".
Используемые в песне аккорды можно найти в разделе Как брать аккорды. Аккорды для шестиструнной гитары. Другие песни можно найти на нашем сайте, воспользовавшись алфавитным указателем вверху страницы.


 
Ошибка в тексте? Выделите ошибку и нажмите Ctrl+Enter