Hm                G
Ты был молод и горд,
A                   Hm
И строить свой дом только начал.
G                 Em
Ты брал жизнь в оборот,
A                  Hm
Но теперь – всё иначе.
Em                       F Em
Ты думал всё за деньги...

Вот твой дом на горе
Не крепость тебе, а тюрьма.
Сон развеялся где: что ты видел
Светом, всё тьма.

Припев:
Em                 Hm
Ты построил свой дом горбом,
D                   Em
Но не в радость тебе он, в тягость.
Am                  Em
Не найдёшь ты в нём даже днём с огнём
D                    Em         
Угол, где спрятана святость.

Скоро рухнет твой дом,
Решай что спасать: дом иль душу?
Но ты – то закрываешь руками
Глаза, то уши.

C#m             A
Ты был молод и горд,
     H                     C#m     
И строить свой дом только начал.
A                 F#m
Ты брал жизнь в оборот,
H                 C#
Но теперь – всё иначе.
Проигрыш: E
Ты думал всё за деньги... 

Припев



     Q    Q    Q    Q       Q    Q    Q    Q       Q    Q     
E||----------------------|----------------------|------------|
B||----------------------|----------------------|------------|
G||----------------------|----------------------|------------|
D||----------------------|----------------------|------------|
A||--4----4----2----4----|-------2---------7----|-------4----|
E||--2----2----0----2----|-------0---------5----|-------2----|


  ^      TP   TP    TP      ^                      TP     TP   TP    TP    
  Q      Q    Q     Q       Q    Q    Q    Q       Q      Q    Q     Q     
-------------------------|----------------------|-------------------------|
-------------------------|----------------------|-------------------------|
-------------------------|----------------------|-------------------------|
-------------------------|----------------------|-------------------------|
--4------4----4-----4----|--4-------------------|--4------4----4-----4----|
--2h~----2----2h----2----|--2----3----2----0----|--2h~----2----2h----2----|


  TP                      TP     TP   TP    TP      TP                    
  Q     Q    Q    Q       Q      Q    Q     Q       Q     Q    Q    Q     
-----------------------|-------------------------|-----------------------|
-----------------------|-------------------------|-----------------------|
-----------------------|-------------------------|-----------------------|
-----------------------|-------------------------|-----------------------|
--4--------------------|--4------4----4-----4----|--4--------------------|
--2S----3----2----0----|--2h~----2----2h----2----|--2S----3----2----0----|


  TP     TP   TP    TP      TP                      TP     TP   TP    TP    
  Q      Q    Q     Q       Q     Q    Q    Q       Q      Q    Q     Q     
-------------------------|-----------------------|-------------------------|
-------------------------|-----------------------|-------------------------|
-------------------------|-----------------------|-------------------------|
-------------------------|-----------------------|-------------------------|
--4------4----4-----4----|--4--------------------|--4------4----4-----4----|
--2h~----2----2h----2----|--2S----3----2----0----|--2h~----2----2h----2----|


  TP                      TP     TP   TP    TP      TP                    
  Q     Q    Q    Q       Q      Q    Q     Q       Q     Q    Q    Q     
-----------------------|-------------------------|-----------------------|
-----------------------|-------------------------|-----------------------|
-----------------------|-------------------------|-----------------------|
-----------------------|-------------------------|-----------------------|
--4--------------------|--4------4----4-----4----|--4--------------------|
--2S----3----2----0----|--2h~----2----2h----2----|--2S----3----2----0----|


                                                    Ты был молот и горд  
  ^      TP   TP    TP      TP                      >                    
  Q      Q    Q     Q       Q     Q    Q    Q       Q                    
-------------------------|-----------------------|----------------------|
-------------------------|-----------------------|----------------------|
-------------------------|-----------------------|----------------------|
-------------------------|-----------------------|--6-------------------|
--4------4----4-----4----|--4--------------------|--4-------------------|
--2h~----2----2h----2----|--2S----3----2----0----|----------------------|


                          И строить свой дом только начал.                   
          >               >                                            >     
          Q               Q                                            Q     
-------|-------|-------|-----------------------------------|-------|--------|
-------|-------|-------|-----------------------------------|-------|--------|
-------|-------|-------|-----------------------------------|-------|--------|
-------|--2----|-------|-----------------------------------|-------|--------|
-------|--0----|-------|--9--------------------------------|-------|--11----|
-------|-------|-------|--7--------------------------------|-------|---9----|


          Ты брал жизнь в оборот                          
          >                                               
          Q                                 Q             
-------|-------------------------|-------|-------|-------|
-------|-------------------------|-------|-------|-------|
-------|-------------------------|-------|-------|-------|
-------|-------------------------|-------|-------|-------|
-------|--7----------------------|-------|--4----|-------|
-------|--5----------------------|-------|--2----|-------|


  Но теперь все иначе.                           
  Q                                Q             
-----------------------|-------|--------|-------|
-----------------------|-------|--------|-------|
-----------------------|-------|--------|-------|
-----------------------|-------|--------|-------|
--9--------------------|-------|--11----|-------|
--7--------------------|-------|---9----|-------|


  Ты думал все за деньги…                                          
  TP                      TP   TP    TP      TP                    
  Q                       Q    Q     Q       Q     Q    Q    Q     
------------------------------------------|-----------------------|
------------------------------------------|-----------------------|
------------------------------------------|-----------------------|
------------------------------------------|-----------------------|
--4-----------------------4----4-----4----|--4--------------------|
--2h~---------------------2----2h----2----|--2S----3----2----0----|


  TP     TP   TP    TP      TP                      TP     TP   TP    TP    
  Q      Q    Q     Q       Q     Q    Q    Q       Q      Q    Q     Q     
-------------------------|-----------------------|-------------------------|
-------------------------|-----------------------|-------------------------|
-------------------------|-----------------------|-------------------------|
-------------------------|-----------------------|-------------------------|
--4------4----4-----4----|--4--------------------|--4------4----4-----4----|
--2h~----2----2h----2----|--2S----3----2----0----|--2h~----2----2h----2----|


  TP                      TP     TP   TP    TP      TP                    
  Q     Q    Q    Q       Q      Q    Q     Q       Q     Q    Q    Q     
-----------------------|-------------------------|-----------------------|
-----------------------|-------------------------|-----------------------|
-----------------------|-------------------------|-----------------------|
-----------------------|-------------------------|-----------------------|
--4--------------------|--4------4----4-----4----|--4--------------------|
--2S----3----2----0----|--2h~----2----2h----2----|--2S----3----2----0----|


  TP     TP   TP    TP      TP                      TP     TP   TP    TP    
  Q      Q    Q     Q       Q     Q    Q    Q       Q      Q    Q     Q     
-------------------------|-----------------------|-------------------------|
-------------------------|-----------------------|-------------------------|
-------------------------|-----------------------|-------------------------|
-------------------------|-----------------------|-------------------------|
--4------4----4-----4----|--4--------------------|--4------4----4-----4----|
--2h~----2----2h----2----|--2S----3----2----0----|--2h~----2----2h----2----|


  TP                      >               >               >             
  Q     Q    Q    Q       Q               Q               Q             
-----------------------|-------|-------|-------|-------|-------|-------|
-----------------------|-------|-------|-------|-------|-------|-------|
-----------------------|-------|-------|-------|-------|-------|-------|
-----------------------|--6----|-------|--2----|-------|-------|-------|
--4--------------------|--4----|-------|--0----|-------|--9----|-------|
--2S----3----2----0----|-------|-------|-------|-------|--7----|-------|


   >               >                                                      
   Q               Q               Q               Q                Q     
--------|-------|-------|-------|-------|-------|-------|-------|--------|
--------|-------|-------|-------|-------|-------|-------|-------|--------|
--------|-------|-------|-------|-------|-------|-------|-------|--------|
--------|-------|-------|-------|-------|-------|-------|-------|--------|
--11----|-------|--7----|-------|--4----|-------|--9----|-------|--11----|
---9----|-------|--5----|-------|--2----|-------|--7----|-------|---9----|


          Ты построил свой дом горбом                                        
          TP                          TP   TP   TP      TP   TP   TP   TP    
          Q                           Q    Q    Q       Q    Q    Q    Q     
-------|---------------------------------------------|----------------------|
-------|---------------------------------------------|----------------------|
-------|---------------------------------------------|----------------------|
-------|---------------------------------------------|----------------------|
-------|--4------------------------------------------|----------------------|
-------|--2---------------------------2----2----2----|--2----2----2----2----|


   TP   TP   TP   TP      TP   TP   TP   TP      TP   TP   TP   TP    
   Q    Q    Q    Q       Q    Q    Q    Q       Q    Q    Q    Q     
-----------------------|----------------------|----------------------|
-----------------------|----------------------|----------------------|
-----------------------|----------------------|----------------------|
-----------------------|----------------------|----------------------|
--11-------------------|----------------------|--4-------------------|
---9----9----9----9----|--9----9----9----9----|--2----2----2----2----|


  TP   TP   TP   TP      TP   TP   TP   TP      TP   TP   TP   TP    
  Q    Q    Q    Q       Q    Q    Q    Q       Q    Q    Q    Q     
----------------------|----------------------|----------------------|
----------------------|----------------------|----------------------|
----------------------|----------------------|----------------------|
----------------------|----------------------|----------------------|
----------------------|--7-------------------|----------------------|
--2----2----2----2----|--5----5----5----5----|--5----5----5----5----|


  TP   TP   TP   TP      TP   TP   TP   TP      TP   TP   TP   TP    
  Q    Q    Q    Q       Q    Q    Q    Q       Q    Q    Q    Q     
----------------------|----------------------|----------------------|
----------------------|----------------------|----------------------|
----------------------|----------------------|----------------------|
----------------------|----------------------|----------------------|
--4-------------------|----------------------|--9-------------------|
--2----2----2----2----|--2----2----2----2----|--7----7----7----7----|


  TP   TP   TP   TP      TP   TP   TP   TP      TP   TP   TP   TP    
  Q    Q    Q    Q       Q    Q    Q    Q       Q    Q    Q    Q     
----------------------|----------------------|----------------------|
----------------------|----------------------|----------------------|
----------------------|----------------------|----------------------|
----------------------|----------------------|----------------------|
----------------------|--4-------------------|----------------------|
--7----7----7----7----|--2----2----2----2----|--2----2----2----2----|


  TP   TP   TP   TP      TP   TP   TP   TP      TP     TP   TP    TP    
  Q    Q    Q    Q       Q    Q    Q    Q       Q      Q    Q     Q     
----------------------|----------------------|-------------------------|
----------------------|----------------------|-------------------------|
----------------------|----------------------|-------------------------|
----------------------|----------------------|-------------------------|
--7-------------------|----------------------|--4------4----4-----4----|
--5----5----5----5----|--5----5----5----5----|--2h~----2----2h----2----|


  TP                      TP     TP   TP    TP      TP                    
  Q     Q    Q    Q       Q      Q    Q     Q       Q     Q    Q    Q     
-----------------------|-------------------------|-----------------------|
-----------------------|-------------------------|-----------------------|
-----------------------|-------------------------|-----------------------|
-----------------------|-------------------------|-----------------------|
--4--------------------|--4------4----4-----4----|--4--------------------|
--2S----3----2----0----|--2h~----2----2h----2----|--2S----3----2----0----|


  TP     TP   TP    TP      TP                      ^      TP   TP    TP    
  Q      Q    Q     Q       Q     Q    Q    Q       Q      Q    Q     Q     
-------------------------|-----------------------|-------------------------|
-------------------------|-----------------------|-------------------------|
-------------------------|-----------------------|-------------------------|
-------------------------|-----------------------|-------------------------|
--4------4----4-----4----|--4--------------------|--4------4----4-----4----|
--2h~----2----2h----2----|--2S----3----2----0----|--2h~----2----2h----2----|


  TP                      >               >               >             
  Q     Q    Q    Q       Q               Q               Q             
-----------------------|-------|-------|-------|-------|-------|-------|
-----------------------|-------|-------|-------|-------|-------|-------|
-----------------------|-------|-------|-------|-------|-------|-------|
-----------------------|--6----|-------|--2----|-------|-------|-------|
--4--------------------|--4----|-------|--0----|-------|--9----|-------|
--2S----3----2----0----|-------|-------|-------|-------|--7----|-------|


   >               >                                                      
   Q               Q               Q               Q                Q     
--------|-------|-------|-------|-------|-------|-------|-------|--------|
--------|-------|-------|-------|-------|-------|-------|-------|--------|
--------|-------|-------|-------|-------|-------|-------|-------|--------|
--------|-------|-------|-------|-------|-------|-------|-------|--------|
--11----|-------|--7----|-------|--4----|-------|--9----|-------|--11----|
---9----|-------|--5----|-------|--2----|-------|--7----|-------|---9----|


          ТЫ был молот и горд....                                        
          TP                      TP   TP   TP      TP   TP   TP   TP    
          Q                       Q    Q    Q       Q    Q    Q    Q     
-------|-----------------------------------------|----------------------|
-------|-----------------------------------------|----------------------|
-------|-----------------------------------------|----------------------|
-------|--8---------------------------------8----|------------8---------|
-------|--6-----------------------6----6----6----|--6----6----6----6----|
-------|-----------------------------------------|----------------------|


  TP   TP   TP   TP      TP   TP   TP   TP      TP   TP   TP   TP    
  Q    Q    Q    Q       Q    Q    Q    Q       Q    Q    Q    Q     
----------------------|----------------------|----------------------|
----------------------|----------------------|----------------------|
----------------------|----------------------|----------------------|
--4--------------4----|------------4---------|--6--------------6----|
--2----2----2----2----|--2----2----2----2----|--4----4----4----4----|
----------------------|----------------------|----------------------|


  TP   TP   TP   TP      TP   TP   TP   TP      TP   TP   TP   TP    
  Q    Q    Q    Q       Q    Q    Q    Q       Q    Q    Q    Q     
----------------------|----------------------|----------------------|
----------------------|----------------------|----------------------|
----------------------|----------------------|----------------------|
------------6---------|--8--------------8----|------------8---------|
--4----4----4----4----|--6----6----6----6----|--6----6----6----6----|
----------------------|----------------------|----------------------|


  TP   TP   TP   TP      TP   TP   TP   TP      TP   TP   TP   TP    
  Q    Q    Q    Q       Q    Q    Q    Q       Q    Q    Q    Q     
----------------------|----------------------|----------------------|
----------------------|----------------------|----------------------|
----------------------|----------------------|----------------------|
----------------------|----------------------|----------------------|
--9--------------9----|------------9---------|--6--------------6----|
--7----7----7----7----|--7----7----7----7----|--4----4----4----4----|


  TP   TP   TP   TP       TP   TP   TP    TP      TP   TP    TP   TP    
  Q    Q    Q    Q        Q    Q    Q     Q       Q    Q     Q    Q     
----------------------|------------------------|-----------------------|
----------------------|------------------------|-----------------------|
----------------------|------------------------|-----------------------|
----------------------|------------------------|-----------------------|
------------6---------|--11--------------11----|------------11---------|
--4----4----4----4----|---9----9----9-----9----|--9----9-----9----9----|


   TP    TP    TP    TP       TP    TP    TP    TP                            
   Q     Q     Q     Q        Q     Q     Q     Q                             
--------------------------|--------------------------|-------|-------|-------|
--------------------------|--------------------------|-------|-------|-------|
--------------------------|--------------------------|-------|-------|-------|
--------------------------|--------------------------|-------|-------|-------|
--13----------------13----|--------------13----------|-------|-------|-------|
--11----11----11----11----|--11----11----11----11----|-------|-------|-------|


-------|-------|-------|-------|-------|-------|-------|-------|-------|-------|
-------|-------|-------|-------|-------|-------|-------|-------|-------|-------|
-------|-------|-------|-------|-------|-------|-------|-------|-------|-------|
-------|-------|-------|-------|-------|-------|-------|-------|-------|-------|
-------|-------|-------|-------|-------|-------|-------|-------|-------|-------|
-------|-------|-------|-------|-------|-------|-------|-------|-------|-------|


-------|-------|-------|-------|-------|-------|-------|-------|-------|-------|
-------|-------|-------|-------|-------|-------|-------|-------|-------|-------|
-------|-------|-------|-------|-------|-------|-------|-------|-------|-------|
-------|-------|-------|-------|-------|-------|-------|-------|-------|-------|
-------|-------|-------|-------|-------|-------|-------|-------|-------|-------|
-------|-------|-------|-------|-------|-------|-------|-------|-------|-------|


-------|-------|-------|-------|-------|-------|-------|-------|-------|-------|
-------|-------|-------|-------|-------|-------|-------|-------|-------|-------|
-------|-------|-------|-------|-------|-------|-------|-------|-------|-------|
-------|-------|-------|-------|-------|-------|-------|-------|-------|-------|
-------|-------|-------|-------|-------|-------|-------|-------|-------|-------|
-------|-------|-------|-------|-------|-------|-------|-------|-------|-------|


-------|-------|-------|-------|-------|-------|-------|-------|-------|-------|
-------|-------|-------|-------|-------|-------|-------|-------|-------|-------|
-------|-------|-------|-------|-------|-------|-------|-------|-------|-------|
-------|-------|-------|-------|-------|-------|-------|-------|-------|-------|
-------|-------|-------|-------|-------|-------|-------|-------|-------|-------|
-------|-------|-------|-------|-------|-------|-------|-------|-------|-------|


                  ^      TP   TP    TP      ^                    
                  Q      Q    Q     Q       Q    Q    Q    Q     
-------|-------|-------------------------|----------------------|
-------|-------|-------------------------|----------------------|
-------|-------|-------------------------|----------------------|
-------|-------|-------------------------|----------------------|
-------|-------|--4------4----4-----4----|--4-------------------|
-------|-------|--2h~----2----2h----2----|--2----3----2----0----|


  ^      TP   TP    TP      ^                      ^      TP   TP    TP    
  Q      Q    Q     Q       Q    Q    Q    Q       Q      Q    Q     Q     
-------------------------|----------------------|-------------------------|
-------------------------|----------------------|-------------------------|
-------------------------|----------------------|-------------------------|
-------------------------|----------------------|-------------------------|
--4------4----4-----4----|--4-------------------|--4------4----4-----4----|
--2h~----2----2h----2----|--2----3----2----0----|--2h~----2----2h----2----|


  ^                      ^      TP   TP    TP      ^                     
  Q    Q    Q    Q       Q      Q    Q     Q       Q    Q    Q    Q      
----------------------|-------------------------|----------------------||
----------------------|-------------------------|----------------------||
----------------------|-------------------------|----------------------||
----------------------|-------------------------|----------------------||
--4-------------------|--4------4----4-----4----|--4-------------------||
--2----3----2----0----|--2h~----2----2h----2----|--2----3----2----0----||




Duration Legend
---------------
W - whole
H - half
Q - quarter
E - 8th
S - 16th
T - 32nd
X - 64th
. - note dotted
|-n-|  - n-tuplets


Tablature Legend
----------------
L - tied note
x - dead note
g - grace note
(n) - ghost note
> - accentuded note
NH - natural harmonic
AH - artificial harmonic
TH - tapped harmonic
SH - semi harmonic
PH - pitch harmonic
h - hammer on
p - pull off
b - bend
br - bendRelease
pb - preBend
pbr - preBendRelease
brb - bendReleaseBend
\n/ - tremolo bar dip
\n - tremolo bar dive
-/n - tremolo bar Release up
/n\ - tremolo bar inverted dip
/n - tremolo bar return
-\n - tremolo bar Release down
S - shift slide
s - legato slide
/ -  slide into from below or out of upwards
\ -  slide into from above or out of downwards
~ - vibrato
W - wide vibrato
tr - trill
TP - tremolo picking
T - tapping
S - slap
P - pop
< - fade in
^ - brush up
v - brush down


Текст, аккорды и табулатура для песни "Ты молот", исполняет "Черный Кофе".
Используемые в песне аккорды можно найти в разделе Как брать аккорды. Аккорды для шестиструнной гитары. Другие песни можно найти на нашем сайте, воспользовавшись алфавитным указателем вверху страницы.


 
Ошибка в тексте? Выделите ошибку и нажмите Ctrl+Enter