Tracy Chapman
Talkin' Bout A Revolution

sounds great. great song. ENJOY!

Intro:
--------0-----0-0-2--3-2---------0------0--0---2--3-2-----------|
-3--3-3---3---0-0-3------3-3-3-3---3----0--0---3-------3--------|
-0--0-0-----0-0-0-2--------0-0-0-----0--0--0---2----------------|
-0--0-2-------2-2-0--------0-0-2--------2--2---0----------------|
-2--2-3-------2-2----------2-2-3--------2--2--------------------|
-3--3---------0-0----------3-3----------0--0--------------------|

Don't you know, they're talkin bout a revolution...
--------0-----0-0-2--3-2---------0------0--0---2--3-2-----------|
-3--3-3---3---0-0-3------3-3-3-3---3----0--0---3-------3--------|
-0--0-0-----0-0-0-2--------0-0-0-----0--0--0---2----------------|
-0--0-2-------2-2-0--------0-0-2--------2--2---0----------------|
-2--2-3-------2-2----------2-2-3--------2--2--------------------|
-3--3---------0-0----------3-3----------0--0--------------------|

Don't you knooooww, they're talkin bout a revolution...
--------0-----0-0-2--3-2---------0------0--0---2--3-2-----------|
-3--3-3---3---0-0-3------3-3-3-3---3----0--0---3-------3--------|
-0--0-0-----0-0-0-2--------0-0-0-----0--0--0---2----------------|
-0--0-2-------2-2-0--------0-0-2--------2--2---0----------------|
-2--2-3-------2-2----------2-2-3--------2--2--------------------|
-3--3---------0-0----------3-3----------0--0--------------------|

While they're standing in the welfare lines... 
--------0-----0-0-2--3-2---------0------0--0---2--3-2-----------|
-3--3-3---3---0-0-3------3-3-3-3---3----0--0---3-------3--------|
-0--0-0-----0-0-0-2--------0-0-0-----0--0--0---2----------------|
-0--0-2-------2-2-0--------0-0-2--------2--2---0----------------|
-2--2-3-------2-2----------2-2-3--------2--2--------------------|
-3--3---------0-0----------3-3----------0--0--------------------|

Wasting time in the unemployment lines... 
--------0-----0-0-2--3-2---------0------0--0---2--3-2-----------|
-3--3-3---3---0-0-3------3-3-3-3---3----0--0---3-------3--------|
-0--0-0-----0-0-0-2--------0-0-0-----0--0--0---2----------------|
-0--0-2-------2-2-0--------0-0-2--------2--2---0----------------|
-2--2-3-------2-2----------2-2-3--------2--2--------------------|
-3--3---------0-0----------3-3----------0--0--------------------|

Don't you know, they're talkin bout a revolution...
--------0-----0-0-2--3-2---------0------0--0---2--3-2-----------|
-3--3-3---3---0-0-3------3-3-3-3---3----0--0---3-------3--------|
-0--0-0-----0-0-0-2--------0-0-0-----0--0--0---2----------------|
-0--0-2-------2-2-0--------0-0-2--------2--2---0----------------|
-2--2-3-------2-2----------2-2-3--------2--2--------------------|
-3--3---------0-0----------3-3----------0--0--------------------|

Poor people gonna rise up, and get their share
--------0-----0-0-2--3-2---------0------0--0---2--3-2-----------|
-3--3-3---3---0-0-3------3-3-3-3---3----0--0---3-------3--------|
-0--0-0-----0-0-0-2--------0-0-0-----0--0--0---2----------------|
-0--0-2-------2-2-0--------0-0-2--------2--2---0----------------|
-2--2-3-------2-2----------2-2-3--------2--2--------------------|
-3--3---------0-0----------3-3----------0--0--------------------|

Poor people gonna rise up, and take what's theirs
--------0-----0-0-2--3-2---------0------0--0---2--3-2-----------|
-3--3-3---3---0-0-3------3-3-3-3---3----0--0---3-------3--------|
-0--0-0-----0-0-0-2--------0-0-0-----0--0--0---2----------------|
-0--0-2-------2-2-0--------0-0-2--------2--2---0----------------|
-2--2-3-------2-2----------2-2-3--------2--2--------------------|
-3--3---------0-0----------3-3----------0--0--------------------|

Don't you know, you better run, run, run...
--------0-----0-0-2--3-2---------0------0--0---2--3-2-----------|
-3--3-3---3---0-0-3------3-3-3-3---3----0--0---3-------3--------|
-0--0-0-----0-0-0-2--------0-0-0-----0--0--0---2----------------|
-0--0-2-------2-2-0--------0-0-2--------2--2---0----------------|
-2--2-3-------2-2----------2-2-3--------2--2--------------------|
-3--3---------0-0----------3-3----------0--0--------------------|

Oh I said you better run, run, run...
--------0-----0-0-2--3-2---------0------0--0---2--3-2-----------|
-3--3-3---3---0-0-3------3-3-3-3---3----0--0---3-------3--------|
-0--0-0-----0-0-0-2--------0-0-0-----0--0--0---2----------------|
-0--0-2-------2-2-0--------0-0-2--------2--2---0----------------|
-2--2-3-------2-2----------2-2-3--------2--2--------------------|
-3--3---------0-0----------3-3----------0--0--------------------|

Finally the tables are starting to turn, talkin' bout a revolution
--------0-----0-0-2--3-2---------0------0--0---2--3-2-----------|
-3--3-3---3---0-0-3------3-3-3-3---3----0--0---3-------3--------|
-0--0-0-----0-0-0-2--------0-0-0-----0--0--0---2----------------|
-0--0-2-------2-2-0--------0-0-2--------2--2---0----------------|
-2--2-3-------2-2----------2-2-3--------2--2--------------------|
-3--3---------0-0----------3-3----------0--0--------------------| (x2)

Talkin' bout a revolution, whooooooah...
--------0-----0-0-2--3-2---------0------0--0---2--3-2-----------|
-3--3-3---3---0-0-3------3-3-3-3---3----0--0---3-------3--------|
-0--0-0-----0-0-0-2--------0-0-0-----0--0--0---2----------------|
-0--0-2-------2-2-0--------0-0-2--------2--2---0----------------|
-2--2-3-------2-2----------2-2-3--------2--2--------------------|
-3--3---------0-0----------3-3----------0--0--------------------|

Crying at the doorsteps of those armies of salvation...
--------0-----0-0-2--3-2---------0------0--0---2--3-2-----------|
-3--3-3---3---0-0-3------3-3-3-3---3----0--0---3-------3--------|
-0--0-0-----0-0-0-2--------0-0-0-----0--0--0---2----------------|
-0--0-2-------2-2-0--------0-0-2--------2--2---0----------------|
-2--2-3-------2-2----------2-2-3--------2--2--------------------|
-3--3---------0-0----------3-3----------0--0--------------------|

Sitting around waiting for a promotion...
--------0-----0-0-2--3-2---------0------0--0---2--3-2-----------|
-3--3-3---3---0-0-3------3-3-3-3---3----0--0---3-------3--------|
-0--0-0-----0-0-0-2--------0-0-0-----0--0--0---2----------------|
-0--0-2-------2-2-0--------0-0-2--------2--2---0----------------|
-2--2-3-------2-2----------2-2-3--------2--2--------------------|
-3--3---------0-0----------3-3----------0--0--------------------|

It sounds like a whisper...
--------0-----0-0-2--3-2---------0------0--0---2--3-2-----------|
-3--3-3---3---0-0-3------3-3-3-3---3----0--0---3-------3--------|
-0--0-0-----0-0-0-2--------0-0-0-----0--0--0---2----------------|
-0--0-2-------2-2-0--------0-0-2--------2--2---0----------------|
-2--2-3-------2-2----------2-2-3--------2--2--------------------|
-3--3---------0-0----------3-3----------0--0--------------------|

Talkin' bout a revolution...
--------0-----0-0-2--3-2---------0------0--0---2--3-2-----------|
-3--3-3---3---0-0-3------3-3-3-3---3----0--0---3-------3--------|
-0--0-0-----0-0-0-2--------0-0-0-----0--0--0---2----------------|
-0--0-2-------2-2-0--------0-0-2--------2--2---0----------------|
-2--2-3-------2-2----------2-2-3--------2--2--------------------|
-3--3---------0-0----------3-3----------0--0--------------------|

Talkin' bout a revolution, whoooooa...
--------0-----0-0-2--3-2---------0------0--0---2--3-2-----------|
-3--3-3---3---0-0-3------3-3-3-3---3----0--0---3-------3--------|
-0--0-0-----0-0-0-2--------0-0-0-----0--0--0---2----------------|
-0--0-2-------2-2-0--------0-0-2--------2--2---0----------------|
-2--2-3-------2-2----------2-2-3--------2--2--------------------|
-3--3---------0-0----------3-3----------0--0--------------------|


Outro: 
Talkin Bout a revolution, whooooaaah
--------0-----0-0-2--3-2-----------------|
-3--3-3---3---0-0-3------3-3-------------|
-0--0-0-----0-0-0-2--------0-------------|
-0--0-2-------2-2-0--------0-------------|
-2--2-3-------2-2----------2-------------|
-3--3---------0-0----------3-------------|


Текст, аккорды и табулатура для песни "Talkin Bout A Revolution", исполняет "Chapman Tracy".
Используемые в песне аккорды можно найти в разделе Как брать аккорды. Аккорды для шестиструнной гитары. Другие песни можно найти на нашем сайте, воспользовавшись алфавитным указателем вверху страницы.


 
Ошибка в тексте? Выделите ошибку и нажмите Ctrl+Enter