Intro:

C(8)   Am F(8)  G(10) 
-8-8-8-85-8--8--10-10|
-8-8-8-85-10-10-12-12|
----------------------|
----------------------|
----------------------|
----------------------|

Затем идет соло1:
----------------------|
-----5----------------|
-5/7---7-5---5-4-5/7-5|
-----------7----------|
----------------------|
----------------------|  

C        Am  F         G
А ты сказала, что собиралась
С одним знакомым пацаном в кино.
Я предложил тебе другой вариант,
Ты согласилась, тебе было все равно.

Пр-в:
    C                   F       G
    Это внеплановый концерт на кухне,
    Это подзарядка наших батарей,
    Это способ не сойти с ума и не опухнуть,
    Чтобы нам с тобой было веселей-ей-ей.
Соло1.

Ты опасалась соратников по парте,
И они были бдительны, как никогда.
Я поклялся, что об этом никто не узнает.
Ты немного поломалась, но не больше чем всегда.

Пр-в:
После этого припева идет соло2:
----------------------|
----------------------|
-5-5h7-5---5-----5---7|
---------7---3-3---5--|
----------------------|
----------------------|

А ты пришла по делам своей фирмы.
Я не ставил чая, так как не было воды.
По телевизору транслировали речь президента.
Я нажал на кнопку и перешел на ты.

Пр-в:
Соло1.
Затем следует бас-соло, под которое поется 4-й куплет.
Эта, собственно, бас-партия играется на протяжении всей песни:
e-----------------------------
H-----------------------------
G-----------------------------
D---2-2---------------------2-
A-3-----3-------3-3---5-5-3---
E---------5-5-1-----3---------

А иногда бывает, мы умираем.
Нас выжимают, и сил нет терпеть.
А мы с тобой идем друг к другу, а Беломор по кругу.
А мы берем гитару и начинаем петь.

Пр-в:
Соло1


Текст, аккорды и табулатура для песни "Внеплановый концерт", исполняет "Чайф".
Используемые в песне аккорды можно найти в разделе Как брать аккорды. Аккорды для шестиструнной гитары. Другие песни можно найти на нашем сайте, воспользовавшись алфавитным указателем вверху страницы.


 
Ошибка в тексте? Выделите ошибку и нажмите Ctrl+Enter