----------------------------------------------------------------------------
			     SHOOTING STARS - Cauterize
----------------------------------------------------------------------------
Tabbed by: Jesse Benedick
Email: [email protected]

Tuning: DADGBE

e|--------------------------------------|-------4---------------4----------|
B|--------------------------------------|---------------4---------------4--|
G|--65/6----65/6----65/6----65/6----|-6-5-6---6-5-6---6-5-6---6-5-6----|
D|--x-x-x----x-x-x----x-x-x----x-x-x----|----------------------------------|
A|--43/4----43/4----43/4----43/4----|----------------------------------|
D|--------------------------------------|----------------------------------|
 Guitar 1                                Repeat lead riff many times
e|--------------------------------------|----------------------------------|
B|--------------------------------------|----------------------------------|
G|------6--------11-------8--------11---|----------------------------------|
D|------6--------x--------x--------x----|----------------------------------|
A|------4--------9--------6--------9----|----------------------------------|
D|--------------------------------------|----------------------------------|
 Guitar 2                                Repeat 1x
e|--------------------------------------|
B|--------------------------------------|
G|------6-------------------------------|
D|------6--------4--------1--------4----|
A|------4--------4--------1--------4----|
D|---------------4--------1--------4----|
 Guitar 2 + Guitar 1 plays lead riff
e|----------------------------------------------------|
B|-----------7-4-6----7-4-6----7-4-6----7-6---7-7-----|
G|-----------6-6-6----6-6-6----6-6-6--------6-6-6-----|
D|----------------------------------------------------|
A|----------------------------------------------------|
D|----------------------------------------------------|
 Guitar 1
e|----------------------------------------------------|
B|----------------------------------------------------|
G|------6---------------------------------------------|
D|------6--------4--------1--------4------------------|
A|------4--------4--------1--------4------------------|
D|---------------4--------1--------4------------------|
Guitar 2 pm................................
e|------------------------------------|
B|------------------------------------|
G|------------------------------------|
D|----8------6------4----------6------|
A|----8------6------4----------6------|
D|----8------6------4----------6------|
 Pre-Chorus Both Guitars repeat 2x
e|-----------------------------------------------------|
B|-----------------------------------------------------|
G|----11-10-8---11-10-8---11-10-8-6--------------------|
D|----x--x--x---x--x--x---x--x--x-6--------------------|
A|----9--8--6---9--8--6---9--8--6-4--------------------|
D|-----------------------------------------------------|
 Guitar 1 Chorus
e|-----------------------------------------------------|
B|-----------------------------------------------------|
G|--6---------8----------------------------------------|
D|--6---------8---------4---------6---8---10--11-12----|
A|--4---------6---------4---------6---8---10--11-12----|
D|----------------------4---------6---8---10--11-12----|
 Guitar 2 Chorus
e|---------------------------------------------|
B|---------------------------------------------|
G|-6-------------------------------------------|
D|-6--4-3----4--4-4-3h4p3----1--4-3----4--6----|
A|-4------4--4------------4--1------4--4--6----|
D|-----------4---------------1---------4--6----|
 Post chorus both Guitars repeat 4x
e|--------------------------------------------------------------|
B|--------------------------------------------------------------|
G|----------------10/11-10-8-10----------------10/11-10-8-10----|
D|----------------x--x--x--x-x--4-4-4------4-4-x--x--x--x-x-----|
A|----------------8/9---8--6-8--4-4-4------4-4-8/9---8--6-8-----|
D|------------------------------4-4-4------4-4------------------|
 Guitar 1 Breakdown
e|--------------------------------------------------------------|
B|--------------------------------------------------------------|
G|-6-6-6------6-6-6-------------6-6-6------6-6-6----------------|
D|-6-6-6------6-6-6-------------6-6-6------6-6-6----------------|
A|-4-4-4------4-4-4-------------4-4-4------4-4-4----------------|
D|--------------------------------------------------------------|
 Guitar 2 Breakdown
e|-----------------------------------------------|
B|-----------------------------------------------|
G|-13----------11-10-8-6-11-10-6----11-10-6------|
D|-x-----------x--x--x-x-x--x--x----x--x--x------|
A|-11----------9--8--6-4-9--8--4----9--8--4------|
D|-----------------------------------------------|
 Guitar 1 Continued
e|-----------------------------------------------|-------------------------|
B|-----------------------------------------------|-------------------------|
G|-6---------------------------------------------|-----6-----6-----6-----6-|
D|-6----------------------------4----------------|---6-----6-----6-----6---|
A|-4----------------------------4----------------|-------------------------|
D|------------------------------4----------------|-8-----6-----4-----4-----|
 Guitar 2 Continued                               Breakdown continued
e|-------------------------------------------------------------------------|
B|-------------------------------------------------------------------------|
G|-6---5-6-8-10-8--6---5-6-8-10-8--6---5-6-8-10-8--11-10-6---11-10-6-------|
D|-x---x-x-x-x--x--x---x-x-x-x--x--x---x-x-x-x--x--x--x--x---x--x--x-------|
A|-4---3-4-6-8--6--4---3-4-6-8--6--4---3-4-6-8--6--9--8--4---9--8--4-------|
D|-------------------------------------------------------------------------|
 Guitar 1 Breakdown continued
e|-------------------------------------------------------------------------|
B|-------------------------------------------------------------------------|
G|-------------------------------------------------------------------------|
D|-8---------------6---------------4---------------6-----------------------|
A|-8---------------6---------------4---------------6-----------------------|
D|-8---------------6---------------4---------------6-----------------------|
 Guitar 2 Breakdown continued

| /  slide up
|   slide down
| h  hammer-on
| p  pull-off
| ~  vibrato
| +  harmonic
| x  Mute note
============================================================================


Текст, аккорды и табулатура для песни "Shooting Stars", исполняет "Cauterize".
Используемые в песне аккорды можно найти в разделе Как брать аккорды. Аккорды для шестиструнной гитары. Другие песни можно найти на нашем сайте, воспользовавшись алфавитным указателем вверху страницы.


 
Ошибка в тексте? Выделите ошибку и нажмите Ctrl+Enter