:::::::::
The Catherine Wheel - WAYDOWN
:::::::::
as transcribed by Marcel Levi 

FIGURE I:
e|-7-7-7-7-6-6-6-6-6-6-6-6-5-5-5-3-|------------------------|
b|---------------------------------|--5--5--3--3--2--2-4----|
   E       G       A#      B (2x)     E     G     A     B (2x)
 |-0-------3-------1-------2-------|--0-----3-----0-----2---|
 |-0-------3-------3-------4-------|--0-----3-----2-----4---|
 |-1-------4-------3-------4------.|--1-----4-----2-----4--.|
 |-2-------5-------3-------4------.|--2-----5-----2-----4--.|
 |-2-------5-------1-------2-------|--2-----5-----0-----2---|
 |-0-------3-----------------------|--0-----3---------------|

VERSE:                               (4x)
BASS: |--------------------------------|
      |-------------------------------.|
      |-------------------------------.|
      |-0-0--0-3-3--3-6-6-6-6-7-7-5-3--|
        I breed       deep in me a 
        beautiful thing
        And I need    energy for my
        beautiful thing

     E       G        A           B (2x)    C
|----0-------3--------0-----------2---|-----3--------------|
|----0-------3--------2-----------4---|-----5--------------|
|----2-------4--------2-----------4--.|-----5--------------|
|----3-------5--------2-----------4--.|-----5--------------|
|----3-------5--------0-----------2---|-----3--------------|
|----0-------3------------------------|--------------------|
But pain for days has stayed with me    From happy to frown
  Expect to  see some change in   me

CHORUS:
     D      E    G    B (3x)   B      C        D
|----5------0----3----2---|----2------3--------5---|
|----7------0----3----4---|----3------5--------7---|
|----7------2----4----4--.|----3------5--------7--.|
|----7------3----5----4--.|----3------5--------7--.|
|----5------3----5----2---|----2------3--------5---|
|-----------0----3--------|------------------------|
 I'm on my way down         I'm on my way down







SOLO (chords):
   E     G (4x)  E       G   A#     E       G   A# (2x) B    C    D#
|--0-----3---|---0-------3---6------0-------3---6----|--2----3----6--|
|--0-----3---|---0-------3---6------0-------3---6----|--4----5----8--|
|--1-----4--.|---1-------4---7------1-------4---7---.|--4----5----8--|
|--2-----5--.|---2-------5---8------2-------5---8---.|--4----5----8--|
|--2-----5---|---2-------5---8------2-------5---8----|--2----3----6--|
|--0-----3---|---0-------3---6------0-------3---6----|---------------|
              Oh this is worth the cost she said
                 This is worth every penny she she said




====


Текст, аккорды и табулатура для песни "Waydown", исполняет "Catherine Wheel".
Используемые в песне аккорды можно найти в разделе Как брать аккорды. Аккорды для шестиструнной гитары. Другие песни можно найти на нашем сайте, воспользовавшись алфавитным указателем вверху страницы.


Слушать онлайн Waydown


Catherine WheelWaydown на Яндекс.Музыке


 
Ошибка в тексте? Выделите ошибку и нажмите Ctrl+Enter