Ian McSherry... this tab is completely correct.
amazing song!

intro

|---------------------------------|--------2--2------1-3-3-1-1-------|
|-----1---------1--1--------1-----|--------2--2----------------------|
|-----0---------0--0--------0-----|----------------------------------|
|---2------0--0--------2--2-------|----------------------------------|
|---3------2--2--------0--0-------|---2--2---------3-----------------|
|---------------------------------|---3--3---------1-----------------|

|--2--2-2-2-2-2-2-----------------|----------------------------------|
|--2--2-2-2-2-2-2-----------------|----------------------------------|
|--0--0-0-0-0-0-0-----------------|----------------------------------|
|--0------------------------------|----------------------------------|  x2
|--2------------------------------|----------------------------------|
|--3------------------------------|----------------------------------|

chorus/post chorus   
|--3-3---2-2---0-0----3-3---------|---1-1-3-1---3-3-3-3--------------|
|--5-5---4-4---2-2----3-3---------|---1-1-1-1---3-3-3-3--------------|
|--5-5---4-4---2-2----4-4---------|---2-2-2-2---4-4-4-4--------------|
|--5-5---4-4---2-2----5-5---------|---3-3-1-3---5-5-5-5--------------|
|--3-3---2-2---0-0----5-5---------|---3-3-3-3---5-5-5-5--------------|
|---------------------3-3---------|---1-1-1-1---3-3-3-3--------------|

verse
|--3-3-3-3-------3-3-3-3----------|--1-1-1-1-------3-3-3-3-----------|
|--5-5-5-5-------3-3-3-3----------|--1-1-1-1-------3-3-3-3-----------|
|--5-5-5-5-------4-4-4-4----------|--2-2-2-2-------4-4-4-4-----------|
|--5-5-5-5-------5-5-5-5----------|--3-3-3-3-------5-5-5-5-----------|
|--3-3-3-3-------5-5-5-5----------|--3-3-3-3-------5-5-5-5-----------|
|----------------3-3-3-3----------|--1-1-1-1-------3-3-3-3-----------|

distortion part(including chorus and verse)
|---------------------------------|----------------------------------|
|---------------------------------|----------------------------------|
|--5-5---4-4---2-2----------------|----------------------------------|
|--5-5---4-4---2-2---5-5----------|--3-3-3-3---5-5-5-5---------------|
|--3-3---2-2---0-0---5-5----------|--3-3-3-3---5-5-5-5---------------|
|--------------------3-3----------|--1-1-1-1---3-3-3-3---------------|

end on
|-----|
|-----|
|--5~-|
|--5~-|
|--3~-|
|-----|


Текст, аккорды и табулатура для песни "Supernothing", исполняет "Catch 22".
Используемые в песне аккорды можно найти в разделе Как брать аккорды. Аккорды для шестиструнной гитары. Другие песни можно найти на нашем сайте, воспользовавшись алфавитным указателем вверху страницы.


 
Ошибка в тексте? Выделите ошибку и нажмите Ctrl+Enter