Eva Cassidy - Time After Time


GUITAR TAB:

Capo: 2

(Intro)

   Csus4 C     Csus2  Csus4 C     Csus2  Am      Am/G       F
E ------------------|------------------|------------------|----------1-------|
H ------1-----1-----|------1-----1-----|--1-------0-------|--------1---------|
G ----0-----0-----0-|----0-----0-----0-|------2-------0---|------2-----------|
D -2h3----2-----0---|-2h3----2-----0---|----2---2---2---2-|----3-------------|
A --3---------------|--3---------------|--0---------------|------------------|
E --+---+---+---+---|--+---+---+---+---|------+---3---+---|--1---+---+---+---|

(Verse)

   Csus4 C     Csus2  Csus4 C     Csus2  Csus4 C     Csus2  Csus4 C     Csus2
E ------------------|------------------|------------------|------------------|
H ------1-----1-----|------1-----1-----|------1-----1-----|------1-----1-----|
G ----0-----0-----0-|----0-----0-----0-|----0-----0-----0-|----0-----0-----0-|
D --3-----2-----0---|--3-----2-----0---|--3-----2-----0---|--3-----2-----0---|
A --3-----3---------|--3-----3---------|--3-----3---------|--3-----3---------|
E --+---+---+---+---|--+---+---+---+---|--+---+---+---+---|--+---+---+---+---|
   Lying in  my       bed I hear         the clock tick and think of you.

   Csus4 C     Csus2  Csus4 C     Csus2  Csus4 C     Csus2  Csus4 C     Csus2
E ------------------|------------------|------------------|------------------|
H ------1-----1-----|------1-----1-----|------1-----1-----|------1-----1-----|
G ----0-----0-----0-|----0-----0-----0-|----0-----0-----0-|----0-----0-----0-|
D --3-----2-----0---|--3-----2-----0---|--3-----2-----0---|--3-----2-----0---|
A --3-----3---------|--3-----3---------|--3-----3---------|--3-----3---------|
E --+---+---+---+---|--+---+---+---+---|--+---+---+---+---|--+---+---+---+---|
        Turning in       circles   confusion          is     nothing new.

    F     G            Em    F            F     G            Em          Em7
E ------------------|------------------|--1---------------|----------0-------|
H --------------0---|--------------1---|--------------0---|--------0-----3---|
G ------------2-----|------------2-----|------2-----2-----|------0-------0---|
D ------3---0-----0-|------2---3-----3-|----3-----0-----0-|----2-------2---0-|
A ----3-------------|----2-------------|------------------|------------------|
E --1---+-3-+---+---|--0---+-1-+---+---|--1---+-3-+---+---|--0---+---+---+---|
       Flashback to   warm  nights,         almost   left   behind.

    F     G            Em    F            F       G          C
E ------------------|------------------|------------------|------------------|
H --1-----------0---|--------------1---|------1-------0---|------1-----1-----|
G ------------2-----|------------2-----|------------------|----0-----0-------|
D ------3---0-----0-|------2---3-----3-|----3-------3-----|--3-----2----2p0--|
A ----3-------------|----2-------------|------------------|--3-----3-------3-|
E --1---+-3-+---+---|--0---+-1-+---+---|--1---+---1---3-3-|------+---+---+---|
       Suitcases  of  memories               time after      sometimes...

(Chorus)

    G                  Am                 F       G         Csus4 C     Csus2
E --3-----3---------|------------------|------------------|------------------|
H --0-----0-------0-|----------1---0---|------------------|--------1---1-----|
G ------2-------2---|------2-----------|--2-----2-----0---|------0-0---0-0---|
D ----0-------0-----|----2-------2---2-|------3-----0---0-|----2--2h3--2-0---|
A ------------------|--0-------0-------|----3-------------|--3-------------3-|
E --3---+-3-3---+---|--+---+-0-+---3---|--1---+---3---+---|--+---+---+---+---|
   If you're lost...

    G                  Am                 F       G         Csus4 C
E --3-----3---------|------------------|------------------|------------------|
H --0-----0-------0-|----------1---0---|------------------|--------1---------|
G ------2-------2---|------2-----------|--------2-----0---|------0-0---------|
D ----0-------0-----|----2-------2---2-|------3-----0---0-|----2--0h2--------|
A ------------------|--0-------0-------|----3-------------|--3---------------|
E --3---+-3-3---+---|--+---+-0-+---3---|--1---+---3---+---|--+---+---+---+---|

LYRICS:


Lying in my bed I hear the clock tick
And think of you
Turning in circles confusion
Is nothing new
Flashback to warm night
Almost left behind
Suitcases of memories
Time after

Sometimes you picture me
I'm walking too far ahead
You're calling to me, I can't hear
What you've said
Then you say go slow
I fall behind
The second hand unwinds

Chorus:
If you're lost you can look and you will find me
Time after time
If you fall I will catch you I'll be waiting
Time after time

After my picture fades and darkness has
Turned to gray
Watching through windows you're wondering
If I'm OK
Secrets stolen from deep inside
The drum beats out of time

Chorus:
If you're lost...
You said go slow
I fall behind
The second hand unwinds

Chorus:
If you're lost......Time after time
Time after time ,Time after time,Time after time

-----------------------------------------------------------
This is not the final version. If anyone has additions
or if the tab does not correspond with the original version
please feel free to let me know.

[email protected]
-----------------------------------------------------------


Текст, аккорды и табулатура для песни "Time After Time", исполняет "Cassidy Eva".
Используемые в песне аккорды можно найти в разделе Как брать аккорды. Аккорды для шестиструнной гитары. Другие песни можно найти на нашем сайте, воспользовавшись алфавитным указателем вверху страницы.


Слушать онлайн Time After Time


Eva CassidyTime After Time на Яндекс.Музыке


 
Ошибка в тексте? Выделите ошибку и нажмите Ctrl+Enter