Hey Porter
                                 by Johnny Cash
                             (this is my first tab)

D-----------------------------------------------------2-----------------------|
A-----------3---3---3---3---3---3---3---3---3---3---3---3---3---3---3-1---1---|
E-3(bend)-1---1---1---1---1---1---1---1---1---1---3-------1---1---1-----1---1-|
D-----------------------------------------------------------------------------|
A--1---1-----3---3---3--------------------------------------------------------|
E----1---1-1---1---1----------------------------------------------------------|

Hey porter, hey porter, could you tell me the time? How much longer will it be till we 
that Mason-Dixon line? At daylight wouldn't you tell that engineer to slow it down, or 
still just stop the train 'cause I wanna look around.

That's the main riff part, and that's what you play all the way through when he sings 
for the solo in the middle:

E---1-1-1-1-1-5-5-5-5-5-1-1-1-----1-1-1-1-1-1-5-5-5-5-5-3-3-3-3-0------------|
B-1---------------------------1-3--------------------------------------------|
G----------------------------------------------------------------------------|
D------------------------------------------------------------------3-3-3-3-3-|
A----------------------------------------------------------------------------|
E----------------------------------------------------------------------------|

E-------------------------------------------------------------------------|
B-------------------------------------------------------------------------|
G-1-1-1-1-0-1-1-0-0-----3-3-3-3-0---0---0---0-----------------------------|
D-------------------3-0-----------3---3---3---3-3-0---0-----3---3---3---3-|...
A---------------------------------------------------1---3-1---1---1---1---|
E-------------------------------------------------------------------------|

Hey porter, hey porter, what time did you say? How much longer will it be till
I can see light of day? When we hit Dixie will you tell that engineer to ring
his bell, and ask that ain't asleep to stand right up and yell? Hey porter,
hey porter, i-'s getting light outside. This old train is puffin' smoke and
I have to strain my eyes. But ask that if he would blow his whistle please,
cause I smell frost on cotton leaves and I feel that southern breeze.
Hey porter, hey porter, please get my bags for me. I need by body to
tell me now that we're in Tennessee. Go tell that engineer to make
that lonesome whistle scream. We're not so far from home so take it
easy on the steam. Hey porter, hey porter, please up the door. When
they stop this train I'm gonna get off first 'cause I can't wait no
more. Tell that engineer I said thanks a lot and I didn't mind the
fare. I'm gonna set my feet on southern soil and breathe that southern air.


Текст, аккорды и табулатура для песни "Hey Porter", исполняет "Cash Johnny".
Используемые в песне аккорды можно найти в разделе Как брать аккорды. Аккорды для шестиструнной гитары. Другие песни можно найти на нашем сайте, воспользовавшись алфавитным указателем вверху страницы.


 
Ошибка в тексте? Выделите ошибку и нажмите Ctrl+Enter