Song: For What It’s Worth
Band: The Cardigans
Tabbed by: Olivar Brito,Coimbra


INTRO:
               Am 
|------------------------------|
|------6h5-----5----5---5------|
|-----5---7-5--5------5---5----|     (2x)
|--5h7---------7---7-7-7-7-----|
|--------------0---------------|
|------------------------------|


|----------------------------------------|
|--5-6h-5-8-6h-5--5-6h--5--5-6h-5--------|
|--5-7h-5-9-7h-5--5-7h--5--5-7h-5--------|      (4x)
|----------------------------------------|
|----------------------------------------|
|----------------------------------------|


|--------------|
|------6h5-----|
|-----5---7-5--|
|--5h7---------|
|--------------|
|--------------|

Verse:

   G    Dm   F    C
|--3----5----1----0----|
|--3----6----1----1----|
|--0----7----2----0----|
|--0----7----3----2----|
|--2----5----3----3----|
|--3-------------------|


Pre-chorus:

|--------------|
|------6h5-----|
|-----5---7-5--|
|--5h7---------|
|--------------|
|--------------|


Chorus:

   F  Dm Am                         F  Dm C  G     F  Dm Am (3x)
|--1--5--0---------|             |--1--5--0--3--|--1--5----------|
|--1--6--1--3-3--1-|             |--1--6--1--3--|--1--6--5--5-h6-|
|--2--7--2---------|     (2x)    |--2--7--0--0--|--2--7--5--5-h7-|
|--3--7--2---------|             |--3--7--2--0--|--3--7--7-------|
|--3--5--0---------|             |--3--5--3--2--|--3--5--0-------|
|------------------|             |-----------3--|----------------|


Текст, аккорды и табулатура для песни "For What Its Worth", исполняет "Cardigans".
Используемые в песне аккорды можно найти в разделе Как брать аккорды. Аккорды для шестиструнной гитары. Другие песни можно найти на нашем сайте, воспользовавшись алфавитным указателем вверху страницы.


 
Ошибка в тексте? Выделите ошибку и нажмите Ctrl+Enter