join the death/black metal tab mailing list by emailing 
        

                                Go To Hell tabs

Go To Hell
(Tune down 2.5 steps to B)

Thanks Daniel and Mike!
|------------------|------------------|------------------|------------------|
|------------------|------------------|------------------|------------------|
|------------------|------------------|------------------|------------------|
|------------5-5-5-|------------5-5-5-|-7----------5-5-5-|------------5-5-5-|
|------------3-3-3-|-7----------3-3-3-|-5----------3-3-3-|-7----------3-3-3-|
|------------------|-5----------------|------------------|-5----------------|

|------------------|------------------|------------------|------------------|
|------------------|------------------|------------------|------------------|
|------------------|------------------|------------------|------------------|
|-7-7-----5-5------|------------5-5-5-|-7----------5-5-5-|------------5-5-5-|
|-5-5-----3-3------|-7----------3-3-3-|-5----------3-3-3-|-7----------3-3-3-|
|------------------|-5----------------|------------------|-5----------------|

|------------------|------------------|------------------|------------------|
|------------------|------------------|------------------|------------------|
|------------------|------------------|------------------|------------------|
|-7-7-----5-5------|------------------|-------------3----|------------------|
|-5-5-----3-3------|-7---7------------|-7---7-3---5---5--|-7---7------------|
|------------------|-55555------------|-55555------------|-55555------------|
                     pppp               pppp               pppp

|------------------|------------------|------------------|------------------|
|------------------|------------------|------------------|------------------|
|------------------|------------------|------------------|------------------|
|-5---5-----3------|------------------|-------------3----|------------------|
|-33333-5-------5--|-7---7------------|-7---7-3---5---5--|-5---5-----5-7-5--|
|------------------|-55555------------|-55555------------|-33333-----3-5-3--|
  pppp               pppp               pppp               pppp

|------------------|
|------------------|
|------------------|
|------------------|
|-3---3-----3-5-5--|
|-11111-----1-3-3--|
  pppp      p p p

Play that twice then the chorus:

(Bill and Carlo are actually playing two different rhythms here, so I put in
the most audible one, but if you want the other, turn the balance to the
right speaker.)
|------------------|------------------|------------------|------------------|
|------------------|------------------|------------------|------------------|
|------------------|------------------|------------------|-7-7-7-7-7-7-7-7--|
|------------------|------------------|-5-5-5-5-5-5-5-5--|-5-5-5-5-5-5-5-5--|
|-7-7-7-7-7-7-7-7--|-7-7-7-7-7-7-7-7--|-3-3-3-3-3-3-3-3--|------------------|
|-5-5-5-5-5-5-5-5--|-5-5-5-5-5-5-5-5--|------------------|------------------|
    p p   p p   p      p p   p p   p      p p   p p   p      p p   p p   p

|------------------|------------------|------------------|------------------|
|------------------|------------------|------------------|------------------|
|------------------|------------------|------------------|------------------|
|------------------|------------------|------------------|------------------|
|-7-7-7-7-7-7-7-7--|-7-7-7-7-7-7-7-7--|-5-5-5-5-5---3-5--|-4-4-4-4-4-4-4-5--|
|-5-5-5-5-5-5-5-5--|-5-5-5-5-5-5-5-5--|-3-3-3-3-3---5-3--|-2-2-2-2-2-2-2-3--|
    p p   p p   p      p p   p p   p      p p   p            p p   p p

Play chorus twice, but on second time, substitute the last bar with this fill:
|------------------|
|------------------|
|------------------|
|-7---5p7h5--------|
|-----------7--5---|
|------------------|

...and Mike sends the following corrections:
--------------------------------------------------------------------------
--------------------------------------------------------------------------
--------------------------------------------------------------------------
----3-----2--------3------7--------3-----2--------3-----7-7--5-5---etc----
--3---3---0------3---3----5------3---3---0------3---3---5-5--3-3----------
--------------------------------------------------------------------------

I also think that the next bit you have should be open A string
not 5th fret E string, but thats being picky..

Chorus:--   along with other guitar
---------------------------------------------------------------------------
---------------------------------------------------------------------------
----------------------------------------------7--7-7-----------------------
-2--2-2----3----2--2-2----3----5--5-5----3----5--5-5-----3-----etc---------
-0--0-0--3---3--0--0-0--3---3--3--3-3--3---3-----------3---3---------------
---------------------------------------------------------------------------

Fill:
--------------
--------------
------h-p-----
-7--5-7-5-----
-----------3--
--------------


Текст, аккорды и табулатура для песни "Go To Hell", исполняет "Carcass".
Используемые в песне аккорды можно найти в разделе Как брать аккорды. Аккорды для шестиструнной гитары. Другие песни можно найти на нашем сайте, воспользовавшись алфавитным указателем вверху страницы.


 
Ошибка в тексте? Выделите ошибку и нажмите Ctrl+Enter