From: 
 
 
                               Embodiment
                                by Carcass
                             from HeartWork
 
 
 I thought to myself - where is the reaction, Carcass' New album,
 HeartWork deserves. People say Death Metal is dead - I say hell!
 And carcass prove I'm right. It's a master album, with Riffs not
 From this world, Smart melodic solos and an attacking original
 Sound and rythem. Each song there is a piece - HeartWork is
 Definantly a real progression from the last album - although some
 May say it's a break down.
 
 It's a *****+  RiffTastik classic.
 
 I have worked a lot of time on this tab for Embodiment, the
 5th fantastic track of HeartWork. I tabed only the riffs
 While if anyone would want the solos - Post me.
 
 Here goes:
 
 Tune your guitar to a dropped D state (i.e. Low E --> lower D).
 
 Make sure the Distortion is on full. You're gonna need it.
 
 
 Opening:
 
 ---------------|
 ---------------|
 ----5----------|
 |--4--4--4---5--3--5--4----|
 |--2--2--2---3-----3--2----|
 ---------------|
 
 
 A:
 
 ----------------------------------------------------------|
 ----------------------------------------------------------|
 ----------------------------------------------------------|
 h --------- h -------------------------4-----------------|
 |----6--7--7---9----7--7---6-----------4--5------2-----2--------------|
 |--6--------------------------9-----4--------2------------------------|
 
                                                Monster Banding (Scream)
 --------------------------------------------/-------------|
 ------------------------------------------/---------------|
 ----------------------------------------4-----------------|
 h --------- h ---6---------------------------------------|
 |----6--7--7---9----7--7---6-----------4--5------2--------------------|
 |--6--------------------------------4--------2------------------------|
                    _
                   /|
 Repeat Riff twice  |
 
 
 B:
 
 ----------------------------------------------------------|
 ----------------------------------------------------------|
 ----------------------------------------------------------|
 ----------------------------------------------------------|
 |----4--5-----4--5-----4--5--7--5--4--2--0------------2--4-----2--4---|
 |--4--------4--------4----------------------6--4----3--------3--------|
 
 
 ------------------------|
 ------------------------|
 ------------------------|
 ------------------------|
 |----4------------------------------|
 |--3-----0--6--7---0--6--7----0--6--|
          _______________________/
                Ending  #1
 
 Repeat 2: but with different ending:
 
 -|
 -|
 -|
 -|
 |--0--0--0---|
 |--0--0--0---|
    _____/
   Ending #2
 
 
 C (Verse):
 
 ---------------------------------------------------------------|
 ---------------------------------------------------------------|
 -----5---------------------5--3-3------------5-----------------|
 |--4--4--4----5--3--5-----4--4--4---5--3--1-1--4--4---5--3--5--------------|
 |--2--2--2----3-----3-----2--2--2---3----------2--2---3-----3-- continue..-|
 ---------------------------------------------------------------|
 
 Ending #1:
 
 -------------|
 -------------|
 -------------|
 |--4--4--444--4--4--444--|
 |--2--2--222--2--2--222--|
 -------------|
 
 Ending #2:
 
 -------------|
 -------------|
 -------------|
 |--4--4--444--4--4--444--|
 |--2--2--222--2--2--222--|
 -------------|
 
 The difference Between the endings is that on the
 First ending of the verse riff the first B5 chord
 Is blocked and on the second ending it's not.
 
 
 D:
 
 -------------------------------------------------------------|
 ------------------------------x-x-x------------x-x-x---------|
 |----x----x----x----x---------------------4-2-0--x-x-x-----4-2-0--x-x-x--|
 |--4-4--2-2--1-1--2-2--4-5-4-2-1-----------------4-2-0------------4-2-0--|
 |--2-2---------------------------4-2---2----------------2----------------|
 -------------------------------------------------------------|
 
 X stands for guitar blocking.
 
 E:
 
 Guitar 1:
 
 -----------------------------------|
 -----------------------------------|
 -----------------------------------|
 |----7-8-10-----7-8-10-----7-8-10-----9-10-12--|
 -----------------------------------|
 -----------------------------------|
 
 
 Guitar 2 (the same timing):
 
 -----------------------------------|
 -----------------------------------|
 -------------5---------------------|
 |--0----------1----------5----------1----------|
 |--0----------1----------3----------1----------|
 |--0----------1---------------------1----------|
 
 
 F (filling):
 
 ----------------|
 ----------------|
 ----------------|
 |--3--------------------0---|
 |--3--------------------0---|
 |--3--------------------0---|
 
 
 G (filling):
 
 ----------------|
 ----------------|
 ----------------|
 |--3---------5----------0---|
 |--3---------5----------0---|
 |--3---------5----------0---|
 
 
 The song is played like this:
 ****************************
 
 Opening
 A x2
 B + Ending #1
 B + Ending #2
 C + Ending #1 
                > 3 times. The last 2 while Jeff Walker sings.
 C + Ending #2 /
 A x2
 B + Ending #1
 B + Ending #2
 C + Ending #1 
                > 2 times. while Jeff Walker screams the words!!!!!
 C + Ending #2 /
 A x2
 B + Ending #1
 B + Ending #1
 B + Ending #1 +  F (a filling played by second guitar)
 B + Ending #1 +  G (Another filling played by the second guitar)
 D x4
 E x2
 C + Ending #1 
                > 1 time with michael's Solo. 2 times with Jeff singing.
 C + Ending #2 /
 A x2
 B + Ending #1
 B + Ending #1
 B + Ending #1 +  F (a filling played by second guitar)
 B + Ending #1 +  G (Another filling played by the second guitar)
 D x4
 E x2
 E x8 - Only guitar 2 while Steer makes his solo and the song finnally ends.
 
 
 Lyrics:
 *******
 
 Verse 1:
 
 I bow down (before) your precious icon, Deity of self suppression.
 This effigy of flesh. corporeal christi. Nailed!!!!!!!!!!
 In submission to this falst idol. Seeking deliverance!!!!!!!
 >From this spiritual hierarchy. Downward spiralling. a
 Corrupt throne.
 Of repression and guilt.
 
 Our will be done.
 Thy kingdom burns.
 
 Verse 2:
 On my knees, before this tormented flesh, in irreverence.
 In communion with this parasitic host of virtuous divinity.
 This immperious creed bears testament to the failures of our
 Mortality.
 Rightous durance is our cross we bear in stations.
 In stations of the lost.
 
 Our will be done.
 Thy kingdom burn. Thy kingdom burn.
 Our will be done.
 
 >From your knees arise.
 By your own hand, your got (that) you scribe.
 The earth shall inherit the meek.
 Your god is dead.
 
 (Lead - Michael Abbot)
 
 Verse 3:
 Bound down. In god we're trussed. foul stature.
 Icons embodied in flesh. We nail.
 In servitude to deities fashioned in our self image.
 Shadows of eternal strife cast by those who serve.
 Serve a crown of pawns.
 
 (Lead - William Steer).
 
 Lyrics by Jeff Walker.
 Music by Michael Abbot and William Steer.
 
 
 
 Transcribed by Aviad Hay ([email protected]C.IL)
 
 From: 
 
 Solos for Embodiment by Carcass
 
 Transcribed by Aviad Hay - mail me if you disagree.
 
 I am happy to say that a lot of people posted me after
 The embodiment TAB. Those people are true Carcass fans
 And the solos are mainly for them.
 (That's for you Evan, PRIMOZ and the rest).
 
 I hadn't had them on files and I didn't quite found
 Them all before - so, see what trouble I went through.
 
 
 First Solo by Michael Abbot.
 Use Wah-Wah when needed.
 Use Digital delay effect on Medium.
 
 This is just one of the Solos on heartwork where Michael
 Use the wah-wah in an elastrious dimension.
 
 -------------------------------- h ---------- h ------- h ------|
 |----/------------------------------------15---17-17---15---17---15---17-17-|
 |--12---------------------16--12--------------------------------------------|
 |---------14--12--14--12----------14----------------------------------------|
 ----------------------------------------------------------------|
 ----------------------------------------------------------------|
 
 
 ---15-------- h -- p -- p --------------------------------------|
 |--15--17--19------19--17---19---17---15----17-15-----17-20-17-17-20-17-17--|
 ----------------------------------------------------------------|
 ----------------------------------------------------------------|
 ----------------------------------------------------------------|
 ----------------------------------------------------------------|
 
 
                     //                                          ////
 ------19--------------------------------------------19----------|
 |--20-17-20-17-17-----------------------------------------------------------|
 -------------16--14---------------------------------------------|
 ---------------------17--16--17--16-----17-16-14----------------|
 ----------------------------------------------------------------|
 ----------------------------------------------------------------|
 
 Second solo by Bill Steer.
 Vibrato is on.
 
 Note: There is string bending almost on every ending tone - just
       do it with a feeling (of death)
 
 ----------------------------------------------------------------|
 |----//---//--------------------------------------------------------------|
 |--17----12----16------------h--p--p----------------------------------------|
 -------18--17--17-18-17-15---18--17--15------------h--p---------|
 -----------------------------------------18--17--17-18-17-------|
 ----------------------------------------------------------------|
 
 
 ----------------------------------------------------------------|
 ----------------------------------------------------------------|
 ----------------------------------------------------------------|
 -----------15----------------h--p-------------------------------|
 |--15--14-----15--18-------18--17--18--17-18-17---18-17-15-14---------------|
 ---------------------------------------------------16---13------|
 
 
 ----------------------------------------------------------------|
 ----------------------------------------------------h--p--------|
 --------------------------------------12-13-15-13-12-13-12------|
 -------------------12-13-15-13-12-13-----------------------15---|
 --13-15---11----15----------------------------------------------|
 |--15---13-15---------------------------------------------------------------|
 
 
 ----------------------------19-15-16-15-------------------------|
 ----------------------------------------18-16-15-16---//------|
 |--12----------h--p------///---------------------------------16----------|
 |-----15-13--12-13-12--10---------------------------------------------------|
 ----------------------------------------------------------------|
 ----------------------------------------------------------------|
 
 |--22-19-20-19-------------------------------------------------h--h----|
 ---20-17---//---------------------------h--h---12-13-15--|
 ---------19-------------h--h-----h--h---10-11-13-----------|
 -----------------------9-10-12-12-14-15--------------------|
 -----------------------------------------------------------|
 -----------------------------------------------------------|
 
 |----p--p-------------------------------------------|
 |--15-13-12---p--p----------------------------------|
 13-11-10---p--p-----p--p----/////--|
 ---------15-14-12-12-10-9--9------------|
 ----------------------------------------|
 ----------------------------------------|
 
 I'm not sure about that last part. Bill is just hard to figure out.
 Anyway - a tip: On the Steer Solo - use a lot of vibrato banding -
 Listen to the solo a lot to get the feeling.
 
 Well It's 4 in the morning. I better get some sleep.
 
 See ya all Death fans.
 
 



Текст, аккорды и табулатура для песни "Embodiment", исполняет "Carcass".
Используемые в песне аккорды можно найти в разделе Как брать аккорды. Аккорды для шестиструнной гитары. Другие песни можно найти на нашем сайте, воспользовавшись алфавитным указателем вверху страницы.


 
Ошибка в тексте? Выделите ошибку и нажмите Ctrl+Enter