este es mi primer tab... creo q esta bien.
cuaquier cosa me pueden comunicar al mail.. [email protected]

*****si alguien le gusta incubus, canta bien (como en el tono de incubus -
privilege) y vive en maracaibo por favor comunicate conmigo. gracias*****


INTRO
E--------------------------------------------------------------
B--------------------------------------------------------------
G----------5-5-5-5-5-5----3-3-3-3-3-3----7-7-7-7-7-7-7-7-/8-7-
D----------5-5-5-5-5-5----3-3-3-3-3-3----7-7-7-7-7-7-7-7-/8-7-
A----------3-3-3-3-3-3----1-1-1-1-1-1----5-5-5-5-5-5-5-5-/6-5-
E-1-3-5--------------------------------------------------------


E--------------------------------------------------------------
B--------------------------------------------------------------
G----------------3-3-3-3-3-3----------(x2)---------------------
D-5-5-5-5-5-5----3-3-3-3-3-3----3-3-3------3-3-3-3-3-3-3-3-3-3-
A-5-5-5-5-5-5----1-1-1-1-1-1----3-3-3------3-3-3-3-3-3-3-3-3-3-
E-3-3-3-3-3-3-------------------1-1-1------1-1-1-1-1-1-1-1-1-1-
				           --------PM--------/

Verso
E--------------------------------------------------------------
B--------------------------------------------------------------
G--------------------------------------------------------------
D-3-3-3-3-3-3----5-5-5-5-5-5----7-7-7-7-7-7----8-8-8-8-8-8-----
A-3-3-3-3-3-3----5-5-5-5-5-5----7-7-7-7-7-7----8-8-8-8-8-8-----
E-1-1-1-1-1-1----3-3-3-3-3-3----5-5-5-5-5-5----6-6-6-6-6-6-----


E--------------------------------------------------------------
B--------------------------------------------------------------
G-------------------------------5-5-5-5-5-5----3-3-3-3-3-3-----
D-3-3-3-3-3-3----5-5-5-5-5-5----5-5-5-5-5-5----3-3-3-3-3-3-----
A-3-3-3-3-3-3----5-5-5-5-5-5----3-3-3-3-3-3----1-1-1-1-1-1-----
E-1-1-1-1-1-1----3-3-3-3-3-3-----------------------------------


E--------------------------------------------------------------
B--------------------------------------------------------------
G--------------------------------------------------------------
D-3-3-3-3-3-3----5-5-5-5-5-5----7-7-7-7-7-7----8-8-8-8-8-8-----
A-3-3-3-3-3-3----5-5-5-5-5-5----7-7-7-7-7-7----8-8-8-8-8-8-----
E-1-1-1-1-1-1----3-3-3-3-3-3----5-5-5-5-5-5----6-6-6-6-6-6-----


E--------------------------------------------------------------
B--------------------------------------------------------------
G-------------------------------5-5-5-5-5-5----3-3-3-3-3-3-----
D-3-3-3-3-3-3----5-5-5-5-5-5----5-5-5-5-5-5----3-3-3-3-3-3---3-
A-3-3-3-3-3-3----5-5-5-5-5-5----3-3-3-3-3-3----1-1-1-1-1-1---3-
E-1-1-1-1-1-1----3-3-3-3-3-3---------------------------------1-


CORO
E--------------------------------------------------------------
B--------------------------------------------------------------
G----------5-5-5-5-5-5----3-3-3-3-3-3----7-7-7-7-7-7-7-7-/8-7-
D----------5-5-5-5-5-5----3-3-3-3-3-3----7-7-7-7-7-7-7-7-/8-7-
A----------3-3-3-3-3-3----1-1-1-1-1-1----5-5-5-5-5-5-5-5-/6-5-
E-1-3-5--------------------------------------------------------


E--------------------------------------------------------------
B--------------------------------------------------------------
G----------------3-3-3-3-3-3----------(x2)---------------------
D-5-5-5-5-5-5----3-3-3-3-3-3----3-3-3------3-3-3-3-3-3-3-3-3-3-
A-5-5-5-5-5-5----1-1-1-1-1-1----3-3-3------3-3-3-3-3-3-3-3-3-3-
E-3-3-3-3-3-3-------------------1-1-1------1-1-1-1-1-1-1-1-1-1-
				           --------PM--------/

Solo
E--------------------------------------------------------------
B--------------------------------------------------------------
G----------------------------5---------------------------------
D-7-7-7-5---7-5----5-7-7-7-8---7-5----5-7-7^-5-7-8-7-5---------
A---------8------8------------------8------------------8-------
E--------------------------------------------------------------


E--------------------------------------------------------------
B--------------------------------------------------------------
G-------------------------------------------------------------- (x2)
D--8-8-7-7-5-5-------------------------------------------------
A--------------8-8---5-8---5-8---------------------------------
E------------------8-----8-------------------------------------

Coro
E--------------------------------------------------------------
B--------------------------------------------------------------
G----------5-5-5-5-5-5----3-3-3-3-3-3----7-7-7-7-7-7-7-7-/8-7-
D----------5-5-5-5-5-5----3-3-3-3-3-3----7-7-7-7-7-7-7-7-/8-7-
A----------3-3-3-3-3-3----1-1-1-1-1-1----5-5-5-5-5-5-5-5-/6-5-
E-1-3-5--------------------------------------------------------


E--------------------------------------------------------------
B--------------------------------------------------------------
G----------------3-3-3-3-3-3----------(x2)---------------------
D-5-5-5-5-5-5----3-3-3-3-3-3----3-3-3------3-3-3-3-3-3-3-3-3-3-
A-5-5-5-5-5-5----1-1-1-1-1-1----3-3-3------3-3-3-3-3-3-3-3-3-3-
E-3-3-3-3-3-3-------------------1-1-1------1-1-1-1-1-1-1-1-1-1-
				           --------PM--------/

lo repites un verguero de veces y terminas con...
E--------------------------------------------------------------
B--------------------------------------------------------------
G----------------3-3-3-3-3-3-----------------------------------
D-5-5-5-5-5-5----3-3-3-3-3-3----3-3-3-3-3-3-3-3-3-3-3-3-3------
A-5-5-5-5-5-5----1-1-1-1-1-1----3-3-3-3-3-3-3-3-3-3-3-3-3------
E-3-3-3-3-3-3-------------------1-1-1-1-1-1-1-1-1-1-1-1-1------

eso es todo


Текст, аккорды и табулатура для песни "Surfer Girl", исполняет "Caramelos De Cianuro".
Используемые в песне аккорды можно найти в разделе Как брать аккорды. Аккорды для шестиструнной гитары. Другие песни можно найти на нашем сайте, воспользовавшись алфавитным указателем вверху страницы.


Слушать онлайн Surfer Girl


Caramelos de CianuroSurfer Girl на Яндекс.Музыке


 
Ошибка в тексте? Выделите ошибку и нажмите Ctrl+Enter