#-----------------------------------------------------------------------------#
#-- File created with Instab - http://www.pconline.com/~smcarey/instab.html --#
#-----------------------------------------------------------------------------#

Author/Artist: Jerry Cantrell
Title: Angel Eyes
Album: Degradation Trip
Transcribed by: John Jasunas
Email: [email protected]

[email protected]-------------|
-0-0-0--3-3--3-3--3-3-3-3--0-0-0-0-0-0-0-0-0-0-0-0-0--------------------------|
-0-0-0--0-0--2-2--0-0-0-0--2-2-2-2-2-2-2-2-2-2-2-2-2--------------------------|
-2-2-2--0-0--0-0--2-2-2-2--2-2-2-2-2-2-2-2-2-2-2-2-2--------------------------|
-2-2-2--2-2--0-0--3-3-3-3--0-0-0-0-0-0-0-0-0-0-0-0-0--------------------------|
-0-0-0--3-3--x-x--x-x-x-x--0-0-0-0-0-0-0-0-0-0-0-0-0--------------------------|
 Tune Down 1 Whole step Sorry I only have the intro

------------------------------------------------------------------------------|
------------------------------------------------------------------------------|
------------------------------------------------------------------------------|
------------------------------------------------------------------------------|
------------------------------------------------------------------------------|
------------------------------------------------------------------------------|


Текст, аккорды и табулатура для песни "Angel Eyes", исполняет "Cantrell Jerry".
Используемые в песне аккорды можно найти в разделе Как брать аккорды. Аккорды для шестиструнной гитары. Другие песни можно найти на нашем сайте, воспользовавшись алфавитным указателем вверху страницы.


 
Ошибка в тексте? Выделите ошибку и нажмите Ctrl+Enter