Cannibal Corpse
Hammer Smashed Face
Tomb of the Mutilated
Transcribed by Mike Kimball
mailto:[email protected]
www.geocities.com/bloodmetalcontent/

As with all guitar tablature, a mono-spaced font
(e.g. Courier or Monaco) is required to display properly...

Fig. 1
|-------------------||---------------------
|-------------------||---------------------
|-------------------||---------------------
|--------------8----||----------55554444---
|--------------8sl-||---------------------
|--0---0---0---6----||--00112222-----------

|-------------------||---------------------
|-------------------||---------------------
|-------------------||---------------------
|--------------8----||----------55554444---
|--------------8sl-||---------------------
|--000-000-000-6----||--00112222-----------


Fig. 2
|-------------------||---------------------
|-------------------||---------------------
|-------------------||---------------------
|------9------------||------4--------------
|--7-----8---8------||--2-------3----------
|----6-----7---7-6--||----2---2---2-0-1----

Fig. 3
|------------------||-----------
|------------------||-----------
|------------------||-----------
|--4/5-4/5---------||--5-4-2----
|--4/5-4/5-1-------||--5-4-2----
|--2/3-2/3-----0---||--3-2-0----


Fig. 4
|------------------------------------------------------------------
|------------------------------------------------------------------
|-----------------------7-------------------------------3----------
|-------------------9---7---7-6-5-------------------5---3---4-3-2--
|--7h10p7---6h9p6---9---5---7-6-5---3h6h3---2h5p2---5---1---4-3-2--
|-------------------7-0-----5-4-3-------------------3-0-----2-1-0--


Fig. 5
|-----------------------------------||----------
|-----------------------------------||----------
|-----------------------------------||----------
|-------------------4-5-4-----------||--5-4-2---
|-------------------4-5-4---1-------||--5-4-2---
|--7h10p7---6h9p6p0-2-3-2-0-----0---||--3-2-0---


Fig. 6
|-----------------------------------------------------
|-----------------------------------------------------
|------------------------7-------------------------3--
|--------------------9---7---------------------5---3--
|--7~~~~~10~7~~6~~9~~9---5---3~~~~~6~~3~~2~~5~~5---1--
|--------------------7-0-----------------------3-0----

Fig. 7
|---------------------------------
|---------------------------------
|------------------------------3--
|--------------------------5---3--
|--2~~~~~5~~~~~1~~~~~4~~~~~5---1--
|--------------------------3-0----

Fig. 8
|------------------------------------
|------------------------------------
|------------------------------------
|--2---------------------3---2---8--
|--2---------------------3---2---8--
|--0---0---0---2h3-2h3p2-1---0---6--

****FOR EDUCATIONAL USE ONLY!!  USE THIS FOR COMMERCIAL****
****PURPOSES, AND WE WILL HUNT YOU DOWN, KILL YOU, THEN****
****TORTURE YOUR IMMORTAL SOUL FOR ALL ETERNITY!!!!!!!!****


Текст, аккорды и табулатура для песни "Hammer Smashed Face", исполняет "Cannibal Corpse".
Используемые в песне аккорды можно найти в разделе Как брать аккорды. Аккорды для шестиструнной гитары. Другие песни можно найти на нашем сайте, воспользовавшись алфавитным указателем вверху страницы.


 
Ошибка в тексте? Выделите ошибку и нажмите Ctrl+Enter