-------------------------------------------------------------------------------
                        Tyranny of small misery   - Caliban
-------------------------------------------------------------------------------
drop d

intro

guitar 1
e|-13-17-----|13-17---13-17-20-----------------------------------------------|
B|-------17--|-----17--------------------------------------------------------|
G|-----------|---------------------------------------------------------------|
D|-----------|---------------------------------------------------------------|
A|-----------|---------------------------------------------------------------|
D|-----------|---------------------------------------------------------------|

guit 2
e|---------------------------------------------------------------------------|
B|---------------------------------------------------------------------------|
G|----5----------------------------------------------------------------------|
D|-0--5--3-2-1---------------------------------------------------------------|
A|-0--3--3-2-1---------------------------------------------------------------|
D|-0--3--3-2-1---------------------------------------------------------------|

verse 1

e|---------------------------------------------------------------------------|
B|---------------------------------------------------------------------------|
G|---------------------------------------------------------------------------|
D|-----------------4-3-------------------------------------------------------|
A|------5-654-5-6----------565-4-5-6-3h4p3-----------------------------------|
D|-0-0-----------------0-0---------------------------------------------------|
   P.M                 P.M.
e|---------------------------------------------------------------------------|
B|---------------------------------------------------------------------------|
G|---------------------------------------------------------------------------|
D|-----------------4-3-----------------0-1-0-1-------------------------------|
A|-----5-6-5-4-5-6---------5-6-5-4-5-6-0-1-0-1-------------------------------|
D|-0-0-----------------0-0-------------0-1-0-1-------------------------------|
   P.M.                P.M.

chorus
guit 1
e|---------------------------------------------------------------------------|
B|---------------------------------------------------------------------------|
G|---------------------------------------------------------------------------|
D|---------------------------------------------------------------------------|
A|---------------------------------------------------------------------------|
D|--000000000000000000000000-------------------------------------------------|
      fast picking....

guit 2
e|---------------------------------------------------------------------------|
B|---------------------------------------------------------------------------|
G|---------------------------------------------------------------------------|
D|-7-5-2-3-------------------------------------------------------------------|
A|-5-3-0-1-------------------------------------------------------------------|
D|---------------------------------------------------------------------------|

after...

e|-------------------------|-------------------------------------------------|
B|-------------------------|-------------------------------------------------|
G|---(3 times then...)-----|-------------------------------------------------|
D|-0--0--0--0--0--0h1------|-0-1-3-0-4-3-1-3---------------------------------|
A|-0--0--0--0--0--0h1------|-0-1-3-0-4-3-1-3---------------------------------|
D|-0--0--0--0--0--0h1------|-0-1-3-0-4-3-1-3---------------------------------|
  pm    pm    pm  

e|--------------------|------------------------------------------------------|
B|--------------------|------------------------------------------------------|
G|(3 other times...)--|------------------------------------------------------|
D|-0--0--0--0--0--0h1-|-0-1--------------------------------------------------|
A|-0--0--0--0--0--0h1-|-0-1--------------------------------------------------|
D|-0--0--0--0--0--0h1-|-0-1--------------------------------------------------|
  pm    pm    pm        P.M.              

back to chorus...

guit 1
e|---------------------------------------------------------------------------|
B|---------------------------------------------------------------------------|
G|---------------------------------------------------------------------------|
D|---------------------------------------------------------------------------|
A|---------------------------------------------------------------------------|
D|--000000000000000000000000-------------------------------------------------|
      fast picking....

guit 2
e|---------------------------------------------------------------------------|
B|---------------------------------------------------------------------------|
G|---------------------------------------------------------------------------|
D|-7-5-2-3-------------------------------------------------------------------|
A|-5-3-0-1-------------------------------------------------------------------|
D|---------------------------------------------------------------------------|

then....
e|---------------------------------------------------------------------------|
B|---------------------------------------------------------------------------|
G|---------------------------------------------------------------------------|
D|-----------------------------------------5---------------------------------|
A|-------5-7-8-7-5-7-8-----------5-7-8-7-5---8-------------------------------|
D|---0-0---------------------5-5---------------------------------------------|
                 
e|---------------------------------------------------------------------------|
B|---------------------------------------------------------------------------|
G|---------------------------------------------------------------------------|
D|---------------------------------------------5-----------------------------|
A|-------5-7-8-7-5-7-8----------5-7-8--------5---8---------------------------|
D|--3-3--------------------8-8----------7-7----------------------------------|

then...

e|-------|
B|-------|
G|-------|
D|0-1-3-2|
A|0-1-3-2|
E|0-1-3-2|
    P.M.

e|-------------------------|-------------------------------------------------|
B|-------------------------|-------------------------------------------------|
G|---(3 times then...)-----|-------------------------------------------------|
D|-0--0--0--0--0--0h1------|-0-1-3-0-4-3-1-3---------------------------------|
A|-0--0--0--0--0--0h1------|-0-1-3-0-4-3-1-3---------------------------------|
E|-0--0--0--0--0--0h1------|-0-1-3-0-4-3-1-3---------------------------------|
  pm    pm    pm  

e|--------------------|------------------------------------------------------|
B|--------------------|------------------------------------------------------|
G|(3 other times...)--|------------------------------------------------------|
D|-0--0--0--0--0--0h1-|-0-1-3-2----------------------------------------------|
A|-0--0--0--0--0--0h1-|-0-1-3-2----------------------------------------------|
E|-0--0--0--0--0--0h1-|-0-1-3-2----------------------------------------------|
  pm    pm    pm        P.M.              

back to the intro...

guitar 1
e|-13-17-----|13-17---13-17-20-----------------------------------------------|
B|-------17--|-----17--------------------------------------------------------|
G|-----------|---------------------------------------------------------------|
D|-----------|---------------------------------------------------------------|
A|-----------|---------------------------------------------------------------|
E|-----------|---------------------------------------------------------------|

guitar 2
e|---|
B|---|
G|---|
D|-0-|
A|-0-|
E|-0-|

back to verse 1

e|---------------------------------------------------------------------------|
B|---------------------------------------------------------------------------|
G|---------------------------------------------------------------------------|
D|-----------------4-3-------------------------------------------------------|
A|------5-654-5-6----------565-4-5-6-3h4p3-----------------------------------|
E|-0-0-----------------0-0---------------------------------------------------|
   P.M                 P.M.
e|---------------------------------------------------------------------------|
B|---------------------------------------------------------------------------|
G|---------------------------------------------------------------------------|
D|-----------------4-3-----------------0-1-0-1-------------------------------|
A|-----5-6-5-4-5-6---------5-6-5-4-5-6-0-1-0-1-------------------------------|
E|-0-0-----------------0-0-------------0-1-0-1-------------------------------|
   P.M.                P.M.

end with open


Текст, аккорды и табулатура для песни "Tyranny Of Small Misery", исполняет "Caliban".
Используемые в песне аккорды можно найти в разделе Как брать аккорды. Аккорды для шестиструнной гитары. Другие песни можно найти на нашем сайте, воспользовавшись алфавитным указателем вверху страницы.


 
Ошибка в тексте? Выделите ошибку и нажмите Ctrl+Enter