BTAB - SHEEP GO TO HEAVEN
GROUP - CAKE
AUTHOR - BAZ ([email protected])

**TAKEN FROM BAZ BASS TAB ARCHIVE (HTTP://BAZ.HOMEPAD.COM)

work out the riffs and plug them into the song kewl riffs though!

    intro                     riff 1
G|-----------|----------------------------------------|
D|-----------|-------------4X554-5-------------------|
A|-03-04-0505|-5-4X554-5----------4X554-03-04-05-5-|
E|-----------|----------------------------------------|

             riff 2
G|---------------------------|
D|--------XX-53--------------|
A|--33-55--------------XX-53-|
E|---------------33-55-------|

 		interlude
G|--------------------------------------------------------------------------|
D|--77-55-------77-55-------55-33-------55-33-------33-11-------33-11-------|
A|--------77-55-------77-55-------55-33-------55-33-------33-11-------33-11-|
E|--------------------------------------------------------------------------|


Текст, аккорды и табулатура для песни "Sheep Go To Heaven", исполняет "Cake".
Используемые в песне аккорды можно найти в разделе Как брать аккорды. Аккорды для шестиструнной гитары. Другие песни можно найти на нашем сайте, воспользовавшись алфавитным указателем вверху страницы.


 
Ошибка в тексте? Выделите ошибку и нажмите Ctrl+Enter