Artist: Cake - Song: Never There - Tuning: Standard

I like this version better.

Main Verse
G|---------------------------------------------------|
D|----------2------------2-----1---------------------|
A|--------------0----3------2-----2------------------|
E|--0---3--------------------------------------------|


End of horn break:
G|---------------------------------------------------|
D|----------2----------------------------------------|
A|--------------5----3--2----------------------------|
E|--0---3------------------0-------------------------|

Later,
Teej!


Текст, аккорды и табулатура для песни "Never There", исполняет "Cake".
Используемые в песне аккорды можно найти в разделе Как брать аккорды. Аккорды для шестиструнной гитары. Другие песни можно найти на нашем сайте, воспользовавшись алфавитным указателем вверху страницы.


 
Ошибка в тексте? Выделите ошибку и нажмите Ctrl+Enter