cake, never there
Mikel De Uranga, [email protected]
----------------------------------------------------
Author/Artist: CAKE
Title: NEVER THERE
Album: 
Transcribed by: Mikel       ([email protected])
----------------------------------------------------

     INTRO: Repeat this part all the time                             
e
|------------------------------------------------------------
B
|------------------------------------------------------------
G
|------------------------------------------------------------
D
|--------------------2---------------------------------------
A
|-------------------------0-------3--2--3--1-----------------
E
|------------0--0--------------------------------------------
                                                        

  SOLO:
e
|---------------------------------------------------------------------------
B
|-----17--12--13--12--13--13--12--13--12-----17--12--13--12--19--20--13--12-
G
|---------------------------------------------------------------------------
D
|---------------------------------------------------------------------------
A
|---------------------------------------------------------------------------
E
|---------------------------------------------------------------------------


   CONTINUE
e
|-------------------------------------------------------------------------------
B
|-----17--12--13--12--13--13--12--13--12-----17--12--13--12--19--20--13--12-----
G
|-----------------------------------------------------------------------------9-
D
|-------------------------------------------------------------------------------
A
|-------------------------------------------------------------------------------
E
|-------------------------------------------------------------------------------


THATS ALL I HAVE
GOOD LUCK



Текст, аккорды и табулатура для песни "Never There", исполняет "Cake".
Используемые в песне аккорды можно найти в разделе Как брать аккорды. Аккорды для шестиструнной гитары. Другие песни можно найти на нашем сайте, воспользовавшись алфавитным указателем вверху страницы.


 
Ошибка в тексте? Выделите ошибку и нажмите Ctrl+Enter