Intro:
 
Riff 1
      |-------------------------|----------------------|
      |-------------------------|----------------------|
      |-------------------------|----------------------|
      |-12-12-12-12-12-12-12-12-|-12-12-12-12-12-12-12-|
      |-------------------------|----------------------|
      |-------------------------|----------------------|


   |-----------------|-------------------------|
   |-----------------|-------------------------|
   |-----------------|-------------------------|
   |-9-9-9-9-9-9-9-9-|-10-10-10-10-10-10-10-10-|
   |-----------------|-------------------------|
   |-----------------|-------------------------|

   C/Riff 1
   |-----------------|-------------------15----|
   |-----------------|-15----------------------|
   |-----------------|----------------------16-|
   |-0---------(0)---|-------------------------|
   |---------/------|-------------------------|
   |--- 1/2 /-------|-------------------------|

Verso:
        v v v ^ ^   v v v ^  ^         v v v ^ ^ v v v ^ ^ 
 |--------------------------|   |----------------------|
 |--------------------------|   |----------------------|
 |--------------------------| % |----------------------|
 |------4-4---------4-4-----|   |------4-4-------4-4---|
 |--5-5-----5---7-7------7--|   |--2-2-----2-2-2-----2-|
 |--------------------------|   |----------------------|

    V V V ^  ^     V V V ^ ^ 2x
  |--------------|-------------|
  |--------------|-------------|
  |--------------|-------------|
  |--------------|-------------|
  |------5-5-----|------7-7-7--|
  |--3-3------3--|--5-5--------|
  
Puente:
  |-------------|---------------|---------------|------------|---------|
  |-------2-----|-------3-------|-------2-------|-------3----|-------5-|
  |-----2-------|-----4---------|-----2---------|-----4------|-----6---|
  |---4---------|---5-----------|---4-----------|---5--------|---7-----|
  |-4-----------|-5-------------|-4-------------|-5----------|-7-------|
  |-------------|---------------|---------------|------------|---------|
  
    |-------------|---------------|---------------|------------|
    |-------------|---------------|---------------|------------|
    |-7-7-7-7-7-7-|-7-7-7-7-5-5-5-|-7-7-7-7-7-7-7-|-7-7-7-7-7--|
    |-------------|---------------|---------------|------------|
    |-------------|---------------|---------------|------------|
    |-------------|---------------|---------------|------------|

Coro:
 |----------------------|----------------------|
 |-10-10-10-10-10-10-10-|-12-12-12-12-12-12-12-|
 |-11-11-11-11-11-11-11-|-11-11-11-11-11-11-11-|
 |----------------------|----------------------|
 |----------------------|----------------------|
 |----------------------|----------------------|


Текст, аккорды и табулатура для песни "Viento", исполняет "Caifanes".
Используемые в песне аккорды можно найти в разделе Как брать аккорды. Аккорды для шестиструнной гитары. Другие песни можно найти на нашем сайте, воспользовавшись алфавитным указателем вверху страницы.


 
Ошибка в тексте? Выделите ошибку и нажмите Ctrl+Enter