1|-0--1-0--1-0--|     [A]
2|--1----1----1-|
   
     Am   G    Dm       Am
1|---8----7----5--------8--|
2|-1----1----1----1--------|
3|-------------------------|     [B]
4|-------------0-----------|
5|---0------------------0--|
6|--------3----------------|
   
{intro:} [A], [A]+[B]
   
     Am   G    Dm  E     Am
1|---8----7----5---7------8-|
2|-1----1----1----3----3----|
3|--------------------------|     [C]
4|-------------0------------|
5|---0-------------------0--|
6|--------3--------0--------|

    Am(V)      Am(VIII)     G5(VII)  G(VII)
Уронила кошка на пол чашку белую фарфор
    Dm(V)        E(IV)   Am(V)       Am(VIII)
Уронила и разбила кошку выгнали во двор          [C]
Положили чашку на бок чашка бредит кошка спит
Потому что у фарфора битый бок во сне болит
   
Кошка спит и кошка видит как из чашки пьют компот
Только вот из чашки льется все за ворот а не в рот
И сказала кошка чашке: Ты прости меня душа
Я свершила столь неверный и неосторожный шаг
   
               F5(V)         C(VIII)    Gm(X)     Dm(V)
{припев:} Обрекающий на вечность и бессмертие Господь
          Пожалей мою беспечность и страдающую плоть
             F5/G(V)       Dm(V)    G7sus4(V) Dm(V)
          Забери меня обратно отпусти меня домой
                 G7sus4(V)        C(VIII)    Dm/A(V)      Dm
          Не позволь мне больше плакать и смеяться над собой
   
[A]+[B]
   
Залетела муха в лапоть залетела и молчит
Видно ей тепло и сладко вот она и не жужжит
Лапоть выдыхнул зевоту вместе с мухою во сне
Муха вылетела в воздух и проснулась на стене
   
Где же я сегодня ночью почивала босиком
Может я попала в лапоть и уснула прямо в нем
Лапоть думает про муху и вздыхает на полу
Видит как она по стенке ходит и по потолку
   
Обрекающий на вечность и бессмертие Господь
Пожалей мою беспечность и страдающую плоть
Положи меня на полку ближе к небу - потолку
Буду плакать и смеяться глядя на свою судьбу
   
[B]
[A]+[B]

1|---8-7-5--8-7-5--8-7-5--8-7-5---|
4|-----------------------------7--|
   
1|---8-7-5---8-7-5--8-7-5--8-7-5--|
2|--------5-----------------------|
3|----------------7------7--------|
4|------------------------------7-|
   
1|---8-7-5---8-7-5--8-7-5--8-7-5--|
2|--5-----5-----------------------|
3|----------------7------7--------|
4|------------------------------7-|
   
Am(V)     - xxx555
Am(VIII)  - x x x 9 10 8
G5(VII)   - x x x 7 8 10
G(VII)    - xxx787
Dm(V)     - xxx765
E(IV)     - xxx454
F5(V)     - xxx568
C(VIII)   - xxx988
Gm(X)     - x x x 12 11 10
F5/G(V)   - xx5568
G7sus4(V) - xx5768


Текст, аккорды и табулатура для песни "Кошка, чашка, муха и лапоть", исполняет "Бутусов Вячеслав".
Используемые в песне аккорды можно найти в разделе Как брать аккорды. Аккорды для шестиструнной гитары. Другие песни можно найти на нашем сайте, воспользовавшись алфавитным указателем вверху страницы.


Слушать онлайн Кошка, чашка, муха и лапоть


Вячеслав БутусовКошка, чашка, муха и лапоть на Яндекс.Музыке


 
Ошибка в тексте? Выделите ошибку и нажмите Ctrl+Enter