Интро:

Аккорды играются на аккустике резким с 
приглушением ритмом. Табы (желательно) на
электрогитаре чистым тоном с реверберацией 

   Am                       G      
g--9-9-7-7-9-9-7-9--9-7-7--12-12-10-10-
d--------------------------------------
   Am                       G 
g--9-9-7-7-9-9-7-9--9-7-7--4-4-5-5-----
d--------------------------------------
   Dm                      E
g--7-7-5-5-7-7-5-7--7-5-5--9-9-7-7----
d-------------------------------------
   F              E      
g--5-5-----5-5---5--7-7-----7-7---7---
d------7-7-----7--------9-9-----9-----

Куплет:

Электрогитару на низкий тон и по следующим
табам (вроде как бас)
 
    Am                    G
 К берегу спешат пароходы,
D--2-2-0-0--2-2-0-2--2-0-0--5-5-3-3---
A-------------------------------------
E-------------------------------------
   Am                 G
 К берегу бегут поезда,
D--2-2-0-0--2-2-0-2--2-0-0------------
A---------------------------2-2-3-3---
E-------------------------------------
       Dm                  E
 Но закрыты все замки и засовы  
D-------------------------2-2-0-0----
A-5-5-3-3--5-5-3-5--5-3-3------------
E------------------------------------
    F               E
 На берег наступает вода.
D------------
A-3-3-0-0-3-3-0-3--5-5-----5-5---5--
E----------------------7-7-----7----

Берег - это медленная птица,
Берег - это пленный океан,
Берег - это каменное сердце,
Берег - это чья-то тюрьма.

В припеве 2-ой гитаре можно играть
ритмом по аккордам используя басовые
струны. (желательно все аккорды брать
на барре)

      C                     G
И когда на берег хлынет волна
       Am                  E
И застынет на один только миг -
       F                  C
На Земле уже случится война
     Dm                 Am
О которой мы узнаем из книг.

Проигрыш:

Ритм как в куплете но более быстрый и 
без приглушения.
Эл.гитару на перегруз с эхом

D-------0-2--2-0-2----- 
A-0-2-3------------0---  
                         2 раза  
D-------0-2-0--5-3-2--- /
A-0-2-3----------------/ 


Лязгнут золотые ворота
Чей-то голос скажет: "лети !"
Надпись на дверях туалета:
"Будешь на Земле - заходи".

Звездочка блестнет у порога -
Догадайся, сколько ей лет 
Выйдешь на пустую дорогу - 
Щелкнет за спиной пистолет.

Кто-то поставил на мне пробу
Знать бы только, кто этот кто 
Злоба - воробьиное слово
копится в карманах пальто

И когда вода отступит назад
Берег выйдет и откроет героя
Берег выйдет и откроет врага
Их по-прежнему останется двое.

Виски с сахаром и квашеной капустой 
Лед холодный лед на висках
В голове моей прохладно и пусто
Расскажи мне где ты и как

Хочется блевать но не время
Время начищать сапоги
Косточка как белое стремя
Цвета чьей-то детской ноги

Берег встретит героя
Берег встретит врага
Нас всегда было двое
А теперь только я.


Текст, аккорды и табулатура для песни "Берег", исполняет "Бутусов Вячеслав".
Используемые в песне аккорды можно найти в разделе Как брать аккорды. Аккорды для шестиструнной гитары. Другие песни можно найти на нашем сайте, воспользовавшись алфавитным указателем вверху страницы.


Слушать онлайн На берегу безымянной реки


Nautilus PompiliusНа берегу безымянной реки на Яндекс.Музыке


 
Ошибка в тексте? Выделите ошибку и нажмите Ctrl+Enter