turn turn turn

{12 str gtr}

intro
 D              Bm  A   D     Em                Bm  A
-----0----------2---0- -----0-----0-----0-----0-2---0-|
---3------------3---2- ---3-----0-----0-----0---3---2-|
----------------4---2- -------------------------4---2-|
-0-----2--------4---2- -0-----2-----4----5------4---2-|
---------------------- -------------------------------|
---------------------- -------------------------------|

verses

 D       G       G/F#    A
-----0-------0-------0-------0-----0-----|
---3-------0-------0-------2-----3---0-3-|
-----------------------------------------|
-0-----0-------0-------0-----------------|
-------------------------0-----0---------|
---------3-------2-----------------------|
to everything turn turn turn

 D       G       G/F#    A
-----0-------0-------0-------0-----0-----|
---3-------0-------0-------2-----3---3---|
---------------------------------------2-|
-0-----0-------0-------0-----------------|
-------------------------0-----0---------|
---------3-------2-----------------------|
there is a season turn turn turn

 G       G/F#     Em    A           D
-----0-------0--------0-------0---------2-3---0-----0---2p0---3-----|
---0-------0--------0-----2h3---3-----3-----------3---------------0-|
--------------------------------------------------------------------|
-------0-------0------------------0-0-------0---0-----0-----0---0---|
------------------------0-------------------------------------------|
-3-------2--------0-------------------------------------------------|
and a time to every purpose under heaven

chorus

A                D
-------------0-------2---2-3-----|
---2---0-3---------3-----------0-|
---------------------------------|
-----2-----2---2-0-----0-----0---|
-0-------------------------------|
---------------------------------|
(1)a time to be born    a time to die
(2)a time to build up   a time to break down
(3)a time of love       a time of hate
(4)a time to gain       a time to lose

   a time to plant      a time to reap
   a time to dance      a time to mourn
   a time of war        a time of peace
   a time to rend       a time to sew

   a time to kill       a time to heal
   a time to cast       away stones
   a time you may       embrace
   A time for love      a time for hate


 G       G/F#    Em    A            D
-----0-------0-------0-------0------------3---0-------|
---0-------0-------0-----2h3---3------3-----------3---|
----------------------------------------------------2-|
-------0-------0-----------------0--0---0---0---0---0-|
-----------------------0------------------------------|
-3-------2-------0------------------------------------|

a time to laugh a time to weep
a time to gather stones together
a time to refrain from embracing
a time for peace i swear its not too late

solo
-----------------------------------------------------------------|
-----------------------------------------------------------------|
-------0-2---2-0---0---------------------------------------------|
---0-4---------------4---4-2-----------0--2---2-0--0-------------|
-0----------------------------0---0-4----------------4---4-2---2-|
-----------------------------------------------------------------|

-------------------------------------------------------------------|
-------------------------------------------------------------------|
-4---4-2---0---------------------------------7-7---7-6---7-9---7-7-|
-------------4---2---4---2--4-2-4-5---2---0------------------------|
-------------------------------------------------------------------|
-------------------------------------------------------------------|

-------------------------------------------------------------------------------|
-------------------------------------------------------------------------------|
--7-7---6-6---7-9---11-11---9s7-6---7-9---7--7---11-9s7-7--6-6---4-4---2-2---0-|
-------------------------------------------------------------------------------|
-------------------------------------------------------------------------------|
-------------------------------------------------------------------------------|

-----------------|
-----------------|
-0---------------|
----4--2--4--2-0-|
-----------------|
-----------------|



Текст, аккорды и табулатура для песни "Turn Turn Turn", исполняет "Byrds".
Используемые в песне аккорды можно найти в разделе Как брать аккорды. Аккорды для шестиструнной гитары. Другие песни можно найти на нашем сайте, воспользовавшись алфавитным указателем вверху страницы.


 
Ошибка в тексте? Выделите ошибку и нажмите Ctrl+Enter