Title: I don't mind
Artist: The Buzzcocks
Instrument: Guitar
Tuning: Standard (E A D G B E)


intro
E|----------------|----------------||
B|8---------------|----------------||
G|8---------------|7---------------||
D|8---------------|8---------------||
A|6---------------|8---------------||
E|----------------|6---------------|| x2
  D#               A#


verse 1
E|----------------|----------------|----------------|----------------||
B|8---------------|----------------|8---------------|--------7-------||
G|8---------------|7---------------|8---------------|7-------7-------||
D|8---------------|8---------------|8---------------|8-------7-------||
A|6---------------|8---------------|6---------------|8-------5-------||
E|----------------|6---------------|----------------|6---------------||
  D#               A#               D#               A#      D
E|----------------|----------------|----------------|----------------||
B|8---------------|8-------7-------|7---------------|----------------||
G|8-------7-------|8-------7-------|7-------7-------|5---------------||
D|8-------8-------|8-------7-------|7-------8-------|6---------------||
A|6-------8-------|6-------5-------|6-------8-------|6---------------||
E|--------6-------|----------------|--------6-------|4---------------||
  D#      A#       D#      D        D#      A#       G#      
E|----------------||
B|----------------||
G|8---------------||
D|9---------------||
A|9---------------||
E|7---------------||
  B

chorus 
E|----------------|----------------||
B|8---------------|----------------||
G|8------7--------|5-------7-------||
D|8------8--------|6-------8-------||
A|6------8--------|6-------8-------||
E|-------6--------|4-------6-------|| x2
  D#    A#         G#      A#


middle 1
E|----------------|----------------||
B|4---------------|--------------4-||
G|5---------------|5---------7---5-||
D|5---------------|6---------8---5-||
A|3---------------|6---------8---3-||
E|----------------|4---------6-----|| x2
  Cm               G#        A#  Cm
E|----------------|----------------|----------------|----------------||
B|4---------------|----------------|----------------|----------------||
G|5---------------|7---------------|5---------------|7---------------||
D|5---------------|8---------------|6---------------|8---------------||
A|3---------------|8---------------|6---------------|8---------------||
E|----------------|6---------------|4---------------|6---------------||
  Cm               A#               G#               A#


middle 2
E|----------------|----------------|----------------|----------------||
B|4---------------|----------------|----------------|8-----------7---||
G|5---------------|5---------------|7---------------|8-----------7---||
D|5---------------|6---------------|8---------------|8-----------7---||
A|3---------------|6---------------|8---------------|6-----------5---||
E|----------------|4---------------|6---------------|----------------||x3
  Cm               G#               A#               D#          D
E|----------------|----------------|----------------|----------------||
B|4---------------|----------------|----------------|----------------||
G|5---------------|5---------------|7---------------|8---------------||
D|5---------------|6---------------|8---------------|9---------------||
A|3---------------|6---------------|8---------------|9---------------||
E|----------------|4---------------|6---------------|7---------------||
  Cm               G#               A#               B

guitar 2
E|13-11----13-11----13-11----11----11---||
B|------13-------13-------13----13------||
G|--------------------------------------||
D|--------------------------------------||
A|--------------------------------------||
E|--------------------------------------|| x2

E|11-11-11-13b14-14-14-14-14r11--11-13-11-13-11-13-11--||
B|-----------------------------13----------------------||
G|-----------------------------------------------------||
D|-----------------------------------------------------||
A|-----------------------------------------------------||
E|-----------------------------------------------------|| x1

E|13-11------13-11----13-11------13-11----11--12-----||
B|------13---------13-------13---------13------------||
G|---------------------------------------------------||
D|---------------------------------------------------||
A|---------------------------------------------------||
E|---------------------------------------------------|| x1

verse4
E|----------------|----------------|----------------|----------------||
B|9---------------|----------------|9---------------|--------8-------||
G|9---------------|8---------------|9---------------|8-------8-------||
D|9---------------|9---------------|9---------------|9-------8-------||
A|7---------------|9---------------|7---------------|9-------6-------||
E|----------------|7---------------|----------------|7---------------||
  E                B                E                B       D#

E|----------------|----------------|----------------|----------------||
B|9---------------|9-------8-------|9---------------|----------------||
G|9-------8-------|9-------8-------|9-------8-------|6---------------||
D|9-------9-------|9-------8-------|9-------9-------|7---------------||
A|7-------9-------|7-------6-------|7-------9-------|7---------------||
E|--------7-------|----------------|--------7-------|5---------------||
  E       B        E       D#       E       B        A
E|----------------||
B|----------------||
G|9---------------||
D|10--------------||
A|10--------------||
E|8---------------||
  C
outro chorus
E|----------------|----------------||
B|9---------------|----------------||
G|9-------8-------|6--------8------||
D|9-------9-------|7--------9------||
A|7-------9-------|7--------9------||
E|--------7-------|5--------7------|| x3
  E       B        A        B

E|----------------||
B|9---------------||
G|9---------------||
D|9---------------||
A|7---------------||
E|----------------||
  E

intro
verse
chorus
verse
chorus
middle 1
verse
chorus
middle 1
middle 2
verse 4
outro chorus


Текст, аккорды и табулатура для песни "I Dont Mind", исполняет "Buzzcocks".
Используемые в песне аккорды можно найти в разделе Как брать аккорды. Аккорды для шестиструнной гитары. Другие песни можно найти на нашем сайте, воспользовавшись алфавитным указателем вверху страницы.


 
Ошибка в тексте? Выделите ошибку и нажмите Ctrl+Enter